» » »

For The Crown Tabs (ver.1)

Artists:  A B C D E F G H I J K L M N O P Q R S T U V W X Y Z # 

For The Crown Tabs (ver.1)

Link 80
Rating:
1/5 (1 vote)

Hard to play? Try these video lessons and learn fast.
                (Intro)
Intro
e|----------------------------------------------------------------|
B|----------------------------------------------------------------|
G|----------------------------------------------------------------|
D|--------------2-3-3--3-3-3-2---5p----------------------2-/3-2-0-|
A|-0-0--0-0-0-3----------------3----3-3-3--3-3-0-0-0-0-0----------|
E|----------------------------------------------------------------|

e|----------------------------------------------------------------|
B|----------------------------------------------------------------|
G|----------------------------------------------------------------|
D|--------------2-3-3--3-3-3-2---5p----------------------2-/3-2---|
A|-0-0--0-0-0-3----------------3----3-3-3--3-3-0-0-0-0-0--------3-|
E|----------------------------------------------------------------|
            
Hard to play? Try these video lessons and learn fast. | Correct




comments powered by Disqus
↑ Back to top | Tablatures and chords are parodies/interpretations of the original songs. You may use it for private study, scholarship, research or language learning purposes only