» » »

17 Reasons Bass tabs (ver.1)

Artists:  A B C D E F G H I J K L M N O P Q R S T U V W X Y Z # 

17 Reasons Bass tabs (ver.1)

Link 80
Rating:
0/5 (0 votes)

Hard to play? Try these video lessons and learn fast.
                Link-80




Part 1:
G:-----------------------6-4----------
D:---6-7-9-------------6-----7--------
A:-7----------6-7-9--4----------4-5-7-
E:----------7------------------------

PArt 2:
G:---------------------------------
D:-----7-9-------------6-----------
A:-7-7----------7-9--4------4-5-6--
E:----------7-7----------5---------


Part 3:
G:----------------------------------
D:------------------------7-7-7----
A:-7-7-7-7-4-4-4-4\---------------
E:---------------------5-----------

Part 4:
G:-------------------------------
D:-----3-5------------2----------
A:-3-3---------3-5--0-----0-1-2---
E:---------3-3----------1--------

Part 5:
G:------------------------------
D:-----5-7------------4---------
A:-5-5---------5-7--2-----2-3-4-
E:---------5-5----------3-------

Part 6:
G:-------------------
D:-------------7-7-7-
A:-7-7-----5-5-------
E:-----7-7-----------

Part 7:
G:------------------
D:--------------------
A:-7-7-----4-4-4------
E:-----7-7-------5-5-

Part 8:
G:----------------------
D:-----9----------------
A:-7-7-------9--7-7-7---
E:-------7-7----------9-

Part 9:
G:--------------------------------------
D:--------------------------------------
A:-77777777-55555555----------77777777-
E:-------------------77777777------------

Part 10:
G:-------------------------------------
D:-----7-9--------------6-5-4----------
A:-7-7---------7-9---4----------4-5-6--
E:---------7-7----------------5--------



LAYOUT:

Part 1:  X 2               Part 2:  X 1              Part 7:  X 1 
Part 2:  X 3               PArt 3:  X 1              Part 8:  X 1
Part 3:  X 1               Part 2:  X 2              PArt 7:  X 1
Part 2:  X 2               Part 4:  X 1              Part 9:  X 2
Part 4:  X 1               Part 5:  X 1              Part 5:  X 1
PArt 5:  X 1               Part 2:  X 1              Part 4:  X 1
Part 2:  X 1               PArt 3:  X 1              Part 10: X 3
Part 3:  X 1               Part 6:  X 4              Part 3:  X 1
Part 6:  X 4



Its all here, and it should be right.
            
Hard to play? Try these video lessons and learn fast. | Correct




comments powered by Disqus
↑ Back to top | Tablatures and chords are parodies/interpretations of the original songs. You may use it for private study, scholarship, research or language learning purposes only