» » »

Very Last Moment In Time Tabs (ver.1)

Artists:  A B C D E F G H I J K L M N O P Q R S T U V W X Y Z # 

Very Last Moment In Time Tabs (ver.1)

Lindsay Lohan
Rating:
0/5 (0 votes)

Hard to play? Try these video lessons and learn fast.
                Lindsay Lohan
Very Last Moment in Time
Speak
2004 Casablanca Records

Key: C#

Tuning: Standard EADGBe

Chords used:
C# -   x46664
G# -   466544
Bbm -  x13321
F# -   244322
C#/F - 143xxx
Fm -   133111


Intro: Bbm-G#-C#-F# (x2)

Guitar 2:
e|---4---------------2------------|
B|------2--1-1--2--1----2--1-1----|
G|-3----------------------------3-|
D|--------------------------------| x2
A|--------------------------------|
E|--------------------------------|

Guitar 3:
e|---------------------------------|
B|---------------------------------|
G|-3-3-3-5-5-5-5-6-6-1-1-1-1-------|
D|---------------------------4-4-4-| x2
A|---------------------------------|
E|---------------------------------|


Verse 1:
Bbm G#                F#
    Time stops for no one
    G#          Bbm
And moves on unaware
     G#          F#
It's easy not to notice
     G#          Bbm
It's easy not to care
G#           F#
Conversation circles
        G#             Bbm
There's money changing hands
           G#             F#
I've been standing in the middle
          G#              F#
I've been caught up in despair
              G#
Out of the confusion
                   F#
The static and the noise
             G#
You got my attention
You make me wanna


Chorus:
Bbm G#              F#        C#
Live, like it's the last moon rising
 Bbm  G#          C#       F#
Scream, just like no one's there
Bbm G#      F#   C#
Lose all of my defenses
Bbm                  G#
Hold you, touch you, love you
     F#(hold)
Like it's the very last moment in time


Interlude: Bbm-G#-F#-C#-Bbm-G#-C#-F#


Verse 2:
Bbm G#              F#
    It seems like I woke up
  G#                 Bbm
Beneath a different sky
        G#                C#
And I'm drunk on what I'm seeing
F#                 C#/F
Through these open eyes
        G#              C#
All the little ways you move me
        G#           C#/F
All the places you expose
      G#       F#
The illusion I held onto
       G#             F#
You've got me letting go
              G#
I just wanna stay here
               F#
Soaking up the rain
             G#
Falling all around me
Wash the world away


(Repeat Chorus)


Interlude: Fm--F#--Fm--G#

Guitar 2: x2
e|---------------------------------|
B|---------------------------------|
G|-8/10-10-8/10--13-13-12-10--8--6-|
D|-x/-x--x-x/-x---x--x--x--x--x--x-|
A|-6/-8--8-6/-8--11-11-10--8--6--4-|
E|---------------------------------|

e|----------------------------------------|
B|----------------------------------------|
G|-8/10-10-8/10--10-10-10--6--8--10--8--6-|
D|-x/-x--x-x/-x--x---x--x--x--x---x--x--x-|
A|-6/-8--8-6/-8--8---8--8--4--6---8--6--4-|
E|----------------------------------------|


Bridge:
Bbm             G#
Let me feel you next to me
F#               C#
Let me taste the breath you breathe
Bbm          G#     F#(hold)
Open up the space between us


(Repeat chorus twice)
            
Hard to play? Try these video lessons and learn fast. | Correct




comments powered by Disqus
↑ Back to top | Tablatures and chords are parodies/interpretations of the original songs. You may use it for private study, scholarship, research or language learning purposes only