» » »

Lindsay Lohan, Ultimate Tabs (ver.4)

Artists:  A B C D E F G H I J K L M N O P Q R S T U V W X Y Z # 

Ultimate Tabs (ver.4)

Lindsay Lohan Tabs
 Rating:
4/5 (4 votes)
Ultimate lessons Tabs too difficult? Try these video lessons and learn fast
                just listen to the song for strumming... it's easy to pick up... have fun and rock on!

intro (repeat 2x):
e|----------------------------------------------------|
B|----------------------------------------------------|
G|--4-4-4-4-4-4-------------6-6-6-6-6-6---------------|
D|--4-4-4-4-4-4-4-4-4-4-4-4-6-6-6-6-6-6-2-2-2-2-2-2---|
A|--2-2-2-2-2-2-4-4-4-4-4-4-4-4-4-4-4-4-2-2-2-2-2-2---|
E|--2-2-2-2-2-2-2-2-2-2-2-2-4-4-4-4-4-4-0-0-0-0-0-0---|

verse 1:
e|----------------------------------------------------|
B|----------------------------------------------------|
G|--4-4-4-4-4-4-------------4-4-4-4-4-4---------------|
D|--4-4-4-4-4-4-2-2-2-2-2-2-4-4-4-4-4-4-4-4-4-4-4-4---|
A|--2-2-2-2-2-2-2-2-2-2-2-2-2-2-2-2-2-2-4-4-4-4-4-4---|
E|--2-2-2-2-2-2-0-0-0-0-0-0-2-2-2-2-2-2-2-2-2-2-2-2---|
play 3x then play chords below

e|--------------------------------------|
B|--------------------------------------|
G|--6-6-6-6-6-6-6-6-6-------------------|
D|--6-6-6-6-6-6-6-6-6-2-2-2-2-2-2-4-4---|
A|--4-4-4-4-4-4-4-4-4-2-2-2-2-2-2-4-4---|
E|--4-4-4-4-4-4-4-4-4-0-0-0-0-0-0-2-2---|

chorus:
e|----------------------------------------------------|
B|----------------------------------------------------|
G|--4-4-4-4-4-4-------------6-6-6-6-6-6---------------|
D|--4-4-4-4-4-4-4-4-4-4-4-4-6-6-6-6-6-6-2-2-2-2-2-2---|
A|--2-2-2-2-2-2-4-4-4-4-4-4-4-4-4-4-4-4-2-2-2-2-2-2---|
E|--2-2-2-2-2-2-2-2-2-2-2-2-4-4-4-4-4-4-0-0-0-0-0-0---|
play 2x then play chords below

e|---------------------------------------------------------------------------|
B|---------------------------------------------------------------------------|
G|--4-4-4-4-4-4-------------9-9-9-9-9-9-8-8-8-8-8-8-6-6-6-6-6-6-9-9-9-9-9-9--|
D|--4-4-4-4-4-4-4-4-4-4-4-4-9-9-9-9-9-9-8-8-8-8-8-8-6-6-6-6-6-6-9-9-9-9-9-9--|
A|--2-2-2-2-2-2-4-4-4-4-4-4-7-7-7-7-7-7-6-6-6-6-6-6-4-4-4-4-4-4-7-7-7-7-7-7--|
E|--2-2-2-2-2-2-2-2-2-2-2-2-7-7-7-7-7-7-6-6-6-6-6-6-4-4-4-4-4-4-7-7-7-7-7-7--|

intro again (play only 1x):
e|----------------------------------------------------|
B|----------------------------------------------------|
G|--4-4-4-4-4-4-------------6-6-6-6-6-6---------------|
D|--4-4-4-4-4-4-4-4-4-4-4-4-6-6-6-6-6-6-2-2-2-2-2-2---|
A|--2-2-2-2-2-2-4-4-4-4-4-4-4-4-4-4-4-4-2-2-2-2-2-2---|
E|--2-2-2-2-2-2-2-2-2-2-2-2-4-4-4-4-4-4-0-0-0-0-0-0---|

verse 2 (same as before):
e|----------------------------------------------------|
B|----------------------------------------------------|
G|--4-4-4-4-4-4-------------4-4-4-4-4-4---------------|
D|--4-4-4-4-4-4-2-2-2-2-2-2-4-4-4-4-4-4-4-4-4-4-4-4---|
A|--2-2-2-2-2-2-2-2-2-2-2-2-2-2-2-2-2-2-4-4-4-4-4-4---|
E|--2-2-2-2-2-2-0-0-0-0-0-0-2-2-2-2-2-2-2-2-2-2-2-2---|
play 3x then play chords below

e|--------------------------------------|
B|--------------------------------------|
G|--6-6-6-6-6-6-6-6-6-------------------|
D|--6-6-6-6-6-6-6-6-6-2-2-2-2-2-2-4-4---|
A|--4-4-4-4-4-4-4-4-4-2-2-2-2-2-2-4-4---|
E|--4-4-4-4-4-4-4-4-4-0-0-0-0-0-0-2-2---|

chorus:
e|----------------------------------------------------|
B|----------------------------------------------------|
G|--4-4-4-4-4-4-------------6-6-6-6-6-6---------------|
D|--4-4-4-4-4-4-4-4-4-4-4-4-6-6-6-6-6-6-2-2-2-2-2-2---|
A|--2-2-2-2-2-2-4-4-4-4-4-4-4-4-4-4-4-4-2-2-2-2-2-2---|
E|--2-2-2-2-2-2-2-2-2-2-2-2-4-4-4-4-4-4-0-0-0-0-0-0---|
play 2x then play chords below

e|---------------------------------------------------------------------------|
B|---------------------------------------------------------------------------|
G|--4-4-4-4-4-4-------------9-9-9-9-9-9-8-8-8-8-8-8-6-6-6-6-6-6-9-9-9-9-9-9--|
D|--4-4-4-4-4-4-4-4-4-4-4-4-9-9-9-9-9-9-8-8-8-8-8-8-6-6-6-6-6-6-9-9-9-9-9-9--|
A|--2-2-2-2-2-2-4-4-4-4-4-4-7-7-7-7-7-7-6-6-6-6-6-6-4-4-4-4-4-4-7-7-7-7-7-7--|
E|--2-2-2-2-2-2-2-2-2-2-2-2-7-7-7-7-7-7-6-6-6-6-6-6-4-4-4-4-4-4-7-7-7-7-7-7--|

play this during the riff in the bridge:
e|----------------------------------------------------|
B|----------------------------------------------------|
G|--4-4-4-4-4-4-------------6-6-6-6-6-6---------------|
D|--4-4-4-4-4-4-4-4-4-4-4-4-6-6-6-6-6-6-2-2-2-2-2-2---|
A|--2-2-2-2-2-2-4-4-4-4-4-4-4-4-4-4-4-4-2-2-2-2-2-2---|
E|--2-2-2-2-2-2-2-2-2-2-2-2-4-4-4-4-4-4-0-0-0-0-0-0---|
play 2x then play chords below

e|-------------------------------------------------------------------------------|
B|-------------------------------------------------------------------------------|
G|--4-4-4-4-4-4-------------9-9-9-9-9-9-8-8-8-8-8-8-6-6-6-6-6-6-9-9-9-9-9-9------|
D|--4-4-4-4-4-4-4-4-4-4-4-4-9-9-9-9-9-9-8-8-8-8-8-8-6-6-6-6-6-6-9-9-9-9-9-9-4-4--|
A|--2-2-2-2-2-2-4-4-4-4-4-4-7-7-7-7-7-7-6-6-6-6-6-6-4-4-4-4-4-4-7-7-7-7-7-7-4-4--|
E|--2-2-2-2-2-2-2-2-2-2-2-2-7-7-7-7-7-7-6-6-6-6-6-6-4-4-4-4-4-4-7-7-7-7-7-7-2-2--|

return of the chorus (a step higher than before):
e|---------------------------------------------------|
B|---------------------------------------------------|
G|--6-6-6-6-6-6-------------8-8-8-8-8-8--------------|
D|--6-6-6-6-6-6-6-6-6-6-6-6-8-8-8-8-8-8-4-4-4-4-4-4--|
A|--4-4-4-4-4-4-6-6-6-6-6-6-6-6-6-6-6-6-4-4-4-4-4-4--|
E|--4-4-4-4-4-4-4-4-4-4-4-4-6-6-6-6-6-6-2-2-2-2-2-2--|
play 4x then play chords below

e|--------------------------------------------------------------------------------------------|
B|--------------------------------------------------------------------------------------------|
G|--6-6-6-6-6-6-------------------------------------------------------------------------------|
D|--6-6-6-6-6-6-6-6-6-6-6-6-11-11-11-11-11-11-10-10-10-10-10-10-8-8-8-8-8-8-10-10-10-10-10-10-|
A|--4-4-4-4-4-4-6-6-6-6-6-6--9--9--9--9--9--9--8--8--8--8--8--8-6-6-6-6-6-6--9--9--9--9--9--9-|
E|--4-4-4-4-4-4-4-4-4-4-4-4--9--9--9--9--9--9--8--8--8--8--8--8-6-6-6-6-6-6--9--9--9--9--9--9-|

e|-----------------------------------------------------|
B|-----------------------------------------------------|
G|--6-6-6-6-6-6-------------8-8-8-8-8-8-------------6--|
D|--6-6-6-6-6-6-6-6-6-6-6-6-8-8-8-8-8-8-4-4-4-4-4-4-6--|
A|--4-4-4-4-4-4-6-6-6-6-6-6-6-6-6-6-6-6-4-4-4-4-4-4-4--|
E|--4-4-4-4-4-4-4-4-4-4-4-4-6-6-6-6-6-6-2-2-2-2-2-2-4--|
            
Submit corrections

comments powered by Disqus
↑ Back to top | Lindsay Lohan Tabs for Ultimate. Lyrics for acoustic guitar and electric guitar. Tablatures and chords are parodies/interpretations of the original songs. You may use it for private study, scholarship, research or language learning purposes only