» » »

Lindsay Lohan, Rumors Tabs (ver.1)

Artists:  A B C D E F G H I J K L M N O P Q R S T U V W X Y Z # 

Rumors Tabs (ver.1)

Lindsay Lohan Tabs
 Rating:
3.7/5 (6 votes)
Rumors lessons Tabs too difficult? Try these video lessons and learn fast
1
                {pm} = Palm Muted
p    = Pause
/    = Slide
x    = Dead Chord/Not
h    = hammer ons
r/d  = Reveb/Delay
*9   = dead note harmonic over the 9th fret bar


Intro
=====
Guitar One
---------0----0--0----0--0----0--0----0--0----0--0----0--0----0--0----0--|
---------2----2--2----2--2----2--2----2--2----2--2----2--2----2--2----2--|
---------0----0--0----0--0----0--0----0--0----0--0----0--0----0--0----0--|
---------2----2--2----2--2----2--2----2--2----2--2----2--2----2--2----2--|
---------0----0--0----0--0----0--0----0--0----0--0----0--0----0--0----0--|
0-2-3-5------------------------------------------------------------------|
       {this part is very hard to hear and is played with reveb and delay}

guitar Two
-------------------------------------------------------------------------|
-------------------------------------------------------------------------|
-------------------------------------------------------------------------|
-------------------------------------------------------------------------|
-------------------------------------------------------------------------|
-x-x-x-x-0-0-0---0-0-0---0-0-0---0-0-0---0-0-0---0-0-0---0-0-0---0-0-0---|
{=======}
{between}
 {notes}
{guitarone}


Verse 1
=======
Guitar One
---------0----0--0----0--0----0--0----0--0----0--0----0--0----0--0----0--|
---------2----2--2----2--2----2--2----2--2----2--2----2--2----2--2----2--|
---------0----0--0----0--0----0--0----0--0----0--0----0--0----0--0----0--|
---------2----2--2----2--2----2--2----2--2----2--2----2--2----2--2----2--|
---------0----0--0----0--0----0--0----0--0----0--0----0--0----0--0----0--|
0-2-3-5------------------------------------------------------------------|
        {this part is played clean with out the reberb/delay}

Guitar Two
-------------------------------------------------------------------------|
-------------------------------------------------------------------------|
-------------------------------------------------------------------------|
-------------------------------------------------------------------------|
-------------------------------------------------------------------------|
-0-0-0----0-0-0---0-0-0---0-0-0---0-0-0---0-0-0---0-0-0---0-0-0---0-0-0--|


Bridge
======
Guitar One
-----------------------------------------------------------------|
-----------------------------------------------------------------|
-----------------------------------------------------------------|
-----------------------------------------------------------------|
-----------------------------------------------------------------|
-0-0-0----0-0-0---0-0-0---0-0-0---0-0-0---0-0-0---0-0-0---0-0-0--|x1


Guitar Two
------------------------------------------------------------------|
---4----4---4-6----6----6---6-7----7-----7---7-6----6-----6---6-4-|
--6----6---6------6----6---6------6-----6---6------6-----6---6----|
5----5----------5----5----------5-----5----------5-----5----------|
------------------------------------------------------------------|
------------------------------------------------------------------|x2
guitar2 plays it fast to reapeat Twice to fit into guitar once riff


Chorus
======
Guitar One
-----------------------------------------------------------------------------|
-----------------------------------------------------------------------------|
-----------------------------------------------------------------------------|
-----------------------------------------------------------------------------|
-----------------------------------------------------------------------------|
-0-0-0-----0-0-0-----0-0-0-----0-0-0-----0-0-0-----0-0-0-----0-0-0-----0-0-0-|
unlike guitar Two this open notes are not plam muted
                                         { p    m    }

Guitar Two
-----------------------------------------------------------------------------|
-----------------------------------------------------------------------------|
-----------------------------------------------------------------------------|
-----------------------------------------------------------------------------|
-----1p/4-6----1p/4-6----1p/4-6----1p/4-6----1p/4-6----1p/4-6----1p/4-6------|
-0-0-0-----0-0-0-----0-0-0-----0-0-0-----0-0-0-----0-0-0-----0-0-0-----0-0-0-|
{ p m }    {p m }    {p m }    {p m }    {p m}     {p m }    {p m }    {p m}


Verse 2
=======
Guitar One
-----------------------------------------------------------------------------|
6h4-6h4--------------6h4-6h4---------------------------6h-6h4----------------|
-----------------------------------------------------------------------------|
-----------------------------------------------------------------------------|
-----------------------------------------------------------------------------|
-----------0-0-0--------------0-0-0-----0-0-0--------------------------0-0-0-|
{reverbdelay}       {  r/d  }                         {  r/d  }


Guitar Two
-----------------------------------------------------------------------------|
-----------------------------------------------------------------------------|
-----------------------------------------------------------------------------|
-----------------------------------------------------------------------------|
------------------------------------p6-66------------------------------------|
-----0-----0-0-0-----0-0-0-----0-0-0-----0-0-0-----0-0-0-----0-0-0-----0-0-0-|


Bridge 2
========
Guitar One
-----------------------------------------------------------------|
-----------------------------------------------------------------|
-----------------------------------------------------------------|
-----------------------------------------------------------------|
-----------------------------------------------------------------|
-0-0-0----0-0-0---0-0-0---0-0-0---0-0-0---0-0-0---0-0-0---0-0-0--|x1


Guitar Two
------------------------------------------------------------------|
---4----4---4-6----6----6---6-7----7-----7---7-6----6-----6---6-4-|
--6----6---6------6----6---6------6-----6---6------6-----6---6----|
5----5----------5----5----------5-----5----------5-----5----------|
------------------------------------------------------------------|
------------------------------------------------------------------|x2
guitar2 plays it fast to reapeat Twice to fit into guitar once riff


Chorus 2
========
Guitar One
-----------------------------------------------------------------------------|
-----------------------------------------------------------------------------|
-----------------------------------------------------------------------------|
-----------------------------------------------------------------------------|
-----------------------------------------------------------------------------|
-0-0-0-----0-0-0-----0-0-0-----0-0-0-----0-0-0-----0-0-0-----0-0-0-----0-0-0-|
unlike guitar Two this open notes are not plam muted
                                         { p    m    }

Guitar Two
-----------------------------------------------------------------------------|
-----------------------------------------------------------------------------|
-----------------------------------------------------------------------------|
-----------------------------------------------------------------------------|
-----p1p/4-6---p1p/4-6---p1p/4-6---p1p/4-6---p1p/4-6---p1p/4-6---p1p/4-6-----|
-0-0-0-----0-0-0-----0-0-0-----0-0-0-----0-0-0-----0-0-0-----0-0-0-----0-0-0-|
{ p m }   {p m }    {p m }    {p m }    {p m}     {p m }    {p m }    {p m}


Guitar One
-----------------------------------------------------------------------------|
-----------------------------------------------*9--------*9------------------|
-----------------------------------------------------------------------------|
-0-0-0-----2-2-2-----0-0-0-----0-0-0-----------------------------------------|
-0-0-0-----2-2-2-----0-0-0-----0-0-0-----0-0-0-----0-0-0---------------------|
-0-0-0-----2-2-2-----0-0-0-----0-0-0-----0-0-0-----0-0-0-----0-0-0-----0-0-0-|
{=====================================pm===================================}

Guitar Two
-----------------------------------------------------------------------------|
-----------------------------------------------------------------------------|
-----------------------------------------------------------------------------|
-----------------------------------------------------------------------------|
0-0-0-----0-0-0-----0-0-0------0-0-0-----0-0-0-----0-0-0-----0-0-0-----0-0-0-|
0-0-0-----0-0-0-----0-0-0------0-0-0-----0-0-0-----0-0-0-----0-0-0-----0-0-0-|

Chorus Continued
================
Guitar One
-----------------------------------------------------------------------------|
-----------------------------------------------------------------------------|
-----------------------------------------------------------------------------|
0-0-0-----0-0-0--------------------------0-0-0-----0-0-0-----0-0-0-----0-0-0-|
0-0-0-----0-0-0-----------p1p4-6---------0-0-0-----0-0-0-----0-0-0-----0-0-0-|
0-0-0-----0-0-0-------------------0-0----0-0-0-----0-0-0-----0-0-0-----0-0-0-|


Guitar Two
-----------------------------------------------------------------------------|
-----------------------------------------------------------------------------|
-----------------------------------------------------------------------------|
-----------------------------------------------------------------------------|
-----------------------------------------------------------------------------|
0-0-0-----0-0-0--------------------------0-0-0-----0-0-0-----0-0-0-----0-0-0-|


Chorus continued again
======================
Guitar One
-----------------------------------------------------------------------------|
-----------------------------------------------------------------------------|
-----------------------------------------------------------------------------|
-----------------------------------------------------------------------------|
-----------------------------------------------------------------------------|
-0-0-0-----0-0-0-----0-0-0-----0-0-0-----0-0-0-----0-0-0-----0-0-0-----0-0-0-|
unlike guitar Two this open notes are not plam muted
                                         { p    m    }

Guitar Two
-----------------------------------------------------------------------------|
-----------------------------------------------------------------------------|
-----------------------------------------------------------------------------|
-----------------------------------------------------------------------------|
-----1p/4-6----1p/4-6----1p/4-6----1p/4-6----1p/4-6----1p/4-6----1p/4-6------|
-0-0-0-----0-0-0-----0-0-0-----0-0-0-----0-0-0-----0-0-0-----0-0-0-----0-0-0-|
{ p m }    {p m }    {p m }    {p m }    {p m}     {p m }    {p m }    {p m}

Chorus Continued again
======================
Guitar One
----------------------------------------------------------------------------|
----------------------------------------------------------------------------|
----------------------------------------------------------------------------|
----------------------------------------------------------------------------|
----------------------------------------------------------------------------|
-0-0-0-----0-0-0-----0-0-0-----0-0-0-----0-0-0-----0-0-0-----0-0-0----------|
unlike guitar Two this open notes are not plam muted
                                         { p    m    }

Guitar Two
----------------------------------------------------------------------------|
----------------------------------------------------------------------------|
----------------------------------------------------------------------------|
----------------------------------------------------------------------------|
-----1p/4-6----1p/4-6----1p/4-6----1p/4-6----1p/4-6----1p/4-6----1p/4-6-----|
-0-0-0-----0-0-0-----0-0-0-----0-0-0-----0-0-0-----0-0-0-----0-0-0----------|
{ p m }    {p m }    {p m }    {p m }    {p m}     {p m }    {p m }


Enjoy This Great Song From Lindsay Lohan
            
Submit corrections

comments powered by Disqus
↑ Back to top | Lindsay Lohan Tabs for Rumors. Lyrics for acoustic guitar and electric guitar. 1 Tablatures and chords are parodies/interpretations of the original songs. You may use it for private study, scholarship, research or language learning purposes only