>
 >
First

First Guitar Tabs

Lindsay Lohan - First chords, tabs, tablatures, lyrics

Guitar lessons | Add/correct | Request | Top 50 tabs Artists:  A B C D E F G H I J K L M N O P Q R S T U V W X Y Z 0-9

First Guitar Tabs – Lindsay Lohan

CD, Sheet music, Poster

Do you like First? Share with your friends now
ChordsTabsUkulele


 Intro/Verse                                                     x3|
e|-----------------------------------------------------------------|
b|-----------------------------------------------------------------|
g|-----------------------------------------------------------------|
D|------------------------2----------------------------------------|
A|--0-0-4-4-0-0-----3-5-3---3b-0-0-4-4-0-0----------0-0000-3-4--|
E|--------------3-2--------------------------3-2-2-3--------------|

 Riff
D|---------------------|
A|--0-0-4-4-0000000----|
E|---------------------|

 Play the Intro/Verse x2

 Pre Chorus                        x2|
e|-----------------------------------|
b|-----------------------------------|
g|-222222224444444455555555----7777--|
D|-22222222444444445555555555557777--|
A|-00000000222222223333333355555555--|
E|-------------------------3333------|

 Chorus                            x2|
e|-----------------------------------|
b|-----------------------------------|
g|-22222222444444445555555577777777--|
D|-22222222444444445555555577777777--|
A|-00000000222222223333333355555555--|
E|-----------------------------------|

 Riff 2
e|-------------------------------------------------------------------|
b|-------------------------------------------------------------------|
g|-------------------------------------------------------------------|
D|-------------------------2-----------------------------------------|
A|-0-0-4-4-0-0-------3-5-3---3b-0-0-4-4-0-0------------0-0000-3-4-|
E|-------------333-2--------------------------333-2-2-3-------------|

Play the Intro/Verse, and a 2nd guitar play...
e|-----|
b|-----|
g|--2--|
D|--2--|
A|--0--|
E|-----|...a lot of times

 Pre Chorus                        x2|
e|-----------------------------------|
b|-----------------------------------|
g|-222222224444444455555555----------|
D|-22222222444444445555555555555555--|
A|-00000000222222223333333355555555--|
E|-------------------------33333333--|



 Chorus                            x2|
e|-----------------------------------|
b|-----------------------------------|
g|-22222222444444445555555577777777--|
D|-22222222444444445555555577777777--|
A|-00000000222222223333333355555555--|
E|-----------------------------------|

 Post Chorus (2:04)
e|---------------------------------------------------------------|
b|---------------------------------------------------------------|
g|-222222225555555577777777555555552222222255555555777777775555--|
D|-222222225555555577777777555555552222222255555555777777775555--|
A|-000000003333333355555555555533330000000033333333555555555553--|
E|-------------------------3333----------------------------333---|

Play Intro/Verse x1

 Chorus                          x5|Then end with:                    |     
e|---------------------------------|----------------------------------|
b|---------------------------------|----------------------------------|
g|-22222222444444445555555577777777|222222224444444455555555777777772-|
D|-22222222444444445555555577777777|222222224444444455555555777777772-|
A|-00000000222222223333333355555555|000000002222222233333333555555550-|
E|---------------------------------|----------------------------------|





Comments


Popular Lindsay Lohan tabs & chords
Take Me Away Bass Tabs
I Want You To Want Me Chords
If Its All Right Chords
What Are You Waiting For Chords
Magnet Tabs
Symptoms Of You Tabs
Ultimate Tabs
Beautiful Life Ukulele
La Bella Vita Ukulele
To Know Your Name Ukulele


Song lyrics



↑ Back to top | Tablatures and chords are parodies/interpretations of the original songs. You may use it for private study, scholarship, research or language learning purposes only
© 2014 AZChords.com Contact us | Privacy policy | DMCA | Add/correct tabs | Request tabs | Top 50 tabs