» » »

Limblifter, Round The Bass tabs (ver.1)

Artists:  A B C D E F G H I J K L M N O P Q R S T U V W X Y Z # 

Round The Bass tabs (ver.1)

Limblifter Tabs
Rating:
0/5 (0 votes)
Round The lessons Tabs too difficult? Try these video lessons and learn fast
                "(2)
Round the 2- Limlifter
Tuning: E A D G

Notes: This song is really simple, nothing fancy, but it's played fairly quickly.

Riff 1
G|---------|
D|---------|
A|---3-----|
E|-5---5-3-|

Play Riff 1 8 times.
Then play Riff 1-2 8 times.

Riff 1-2
G|---------|
D|---3-----|
A|-5---5-3-|
E|---------|


Then play:

Riff 2-Verse
G|----------------------|
D|----------------------|
A|-33-333-333-3---3-----|
E|--------------5---5-3-|

Play that twice and then play:

Riff 3
G|---------------------------------------------|
D|---------------------------------------3-----|
A|-------------------------------------5---5-3-|
E|-11-111-111-1-1/3/5/3/1-11-111-111-1---------|

Then play Riff 2 twice and then play:

Riff 4
G|-------------------------------------|
D|----------------3--------------------|
A|--------------5---5-3----------------|
E|-11-111-111-1---------11-111-111-111-|

Then on to the chorus:

Riff 5
G|-----------------|
D|-----------------|
A|----55/-------33-|
E|-3X-----11111----|


Play Riff 5 a few times and then play Riff 1 and 1-2 8 times each.

A side note here, When you play Riff 1-2 for the second time, mute the F right after you play it.
(for everyone who is musically inclined, F=3 on D...)

Then play Riff 2 twice, but mute C the first time. (3 on A)
Then play Riff 4.
Then onto Riff 5.
Then quietly play Riff 1 and then fade out.
Right before you come back in, play Riff 1.
Then play Riff 2 a couple times and Riff 4, muting some notes.
After that play Riff 5 and end.
"            

comments powered by Disqus
↑ Back to top | Limblifter Bass for Round The. Lyrics for acoustic guitar and electric guitar. Tablatures and chords are parodies/interpretations of the original songs. You may use it for private study, scholarship, research or language learning purposes only