» » »

Lillasyster, Umbrella Bass tabs (ver.1)

Artists:  A B C D E F G H I J K L M N O P Q R S T U V W X Y Z # 

Umbrella Bass tabs (ver.1)

Lillasyster Tabs
 Rating:
4/5 (4 votes)
Umbrella lessons Tabs too difficult? Try these video lessons and learn fast
1
                The chord progression is kinda different from the original version.

INTRO: DRUMS


VERSE 1 (00:11)
G-------------------------------------|
D-------------------------------------|
A-------------------------------------|
E-1-----3-3-----0------5-5-----5/8/-5-|

VERSE 2
G------------------------------------|
D------------------------------------|
A------------------------------------|
E-1-----3-3-----0------5-5-----5/8-5-|

CHORUS 1

G--------------------------------------------------------------------|
D--------------------------------------------------------------------|
A------------------3-3-3-3-3-3-3-3-----------------------------------|
E-1-1-1-1-1-1-1-1-------------------3-3-3-3-3-3-3-3--5-5-5-5-5-5-5-5-|

G--------------------------------------------------------------------|
D--------------------------------------------------------------------|
A------------------3-3-3-3-3-3-3-3-----------------------------------|
E-1-1-1-1-1-1-1-1-------------------3-3-3-3-3-3-3-3/7--5-7-8---------|


G-------------------------------------------------------------|
D-------------------------------------------------------------|
A-------------------------------------------------------------|
E-1-----3-3-----0-----5-5-----5/8-5---1-----3-3-----0-----5-5-|

VERSE 3

(same as with other verses but dont play the F)

G-------------------------------------|
D-------------------------------------|
A-------------------------------------|
E-------3-3-----0------5-5-----5/8/-5-|

VERSE 4

G------------------------------------|
D------------------------------------|
A------------------------------------|
E-1-----3-3-----0------5-7-8---------|

CHORUS 2

G--------------------------------------------------------------------|
D--------------------------------------------------------------------|
A------------------3-3-3-3-3-3-3-3-----------------------------------|
E-1-1-1-1-1-1-1-1-------------------3-3-3-3-3-3-3-3--5-5-5-5-5-5-5-5-|

G--------------------------------------------------------------------|
D--------------------------------------------------------------------|
A------------------3-3-3-3-3-3-3-3-----------------------------------|
E-1-1-1-1-1-1-1-1-------------------3-3-3-3-3-3-3-3/7--5-7-8---------|


G---------------------------------------------------------------------|
D---------------------------------------------------------------------|
A---------------------------------------------------------------------|
E-1-----3-3-----0-----5-5-----5/8/5---1-----3-3-----0-----5-5--5/12/0-|

BRIDGE

G-----------------------------------------------------------------|
D-----------------------------------------------------------------|
A-1-----------3-------1------------------7-9-11-12-12-14-14-12-11-|
E-------1--------------------1------1/12--------------------------|


CHORUS 3

G--------------------------------------------------------------------|
D--------------------------------------------------------------------|
A------------------3-3-3-3-3-3-3-3-----------------------------------|
E-1-1-1-1-1-1-1-1-------------------3-3-3-3-3-3-3-3--5-5-5-5-5-5-5-5-|

G--------------------------------------------------------------------|
D--------------------------------------------------------------------|
A------------------3-3-3-3-3-3-3-3-----------------------------------|
E-1-1-1-1-1-1-1-1-------------------3-3-3-3-3-3-3-3/7--5-7-8---------|

OUTRO (repeat this part 6 times till fade)
G--------------------------------------------------------------------|
D--------------------------------------------------------------------|
A-----------------3-3-3-3-3-3-3-3-3----------------------------------|
E-1-1-1-1-1-1-1-1-------------------3-3-3-3-3-3-3-3-5-5-5-5-5-5-5-5--|
            
Submit corrections

comments powered by Disqus
↑ Back to top | Lillasyster Bass for Umbrella. Lyrics for acoustic guitar and electric guitar. 1 Tablatures and chords are parodies/interpretations of the original songs. You may use it for private study, scholarship, research or language learning purposes only