» » »

Lillasyster, Beratta Det For Lina Tabs (ver.1)

Artists:  A B C D E F G H I J K L M N O P Q R S T U V W X Y Z # 

Beratta Det For Lina Tabs (ver.1)

Lillasyster Tabs
Rating:
4/5 (1 vote)
Hard to play? Try these video lessons and learn fast.
                Hi.
This is the first song that I've ever tabbed out myself, so please don't go too hard on me.
And as much as I would have loved writing in Swedish (since there'll
the last three letters in our alphabet (you know the ones), so I decided to just write the 
thing in english instead.
This is how I play it, and it works for me, and is as close to perfect as I can get it.
If you have any suggestions, please leave a comment.
Enjoy a great song! It's real fun to play too.
But your wrist might feel a bit sore afterwards if you're not used to playing this kind 
song.
Pretty much everything is just downward-strokes. Anyway, have fun and rock on! :)

Tab legend:

*: Harmonic (natural)


Intro

Riff 1
e|--------------------------------------------------------------------|
B|--------------------------------------------------------------------|
G|----------------5---4-----------------------------5---4-------------|
D|--0-0-3-0-3-0-0---0---0-5-5-5-5-5---0-0-3-0-3-0-0---0---0-3-3-3-3-3-|
A|--------------------------------------------------------------------|
d|--------------------------------------------------------------------| (x4)

Riff 2
e|--------------------------------------------------------------------|
B|--------------------------------------------------------------------|
G|--------------------------------------------------------------------|
D|--------------------------------------------------------------------|
A|----------------3---2--------------------------3---2----------------|
d|--0-0-3-0-3-0-0---0---0-5-5-5-5-5---0-0-3-0-3-0-0---0---0-3-3-3-3-3-| (x2)

Riff 1 x2
Riff 2 x2

Riff 3
e|------------------------------------------------------------------|
B|------------------------------------------------------------------|
G|------------------------------------------------------------------|
D|-7-7-7-7-7-7-8-7-5-5-5-5-5-5-7-5-3-3-3-3-3-3-5-3-0-0-0---0-0-0----|
A|-7-7-7-7-7-7-8-7-5-5-5-5-5-5-7-5-3-3-3-3-3-3-5-3-0-0-0---0-0-0----|
d|-7-7-7-7-7-7-8-7-5-5-5-5-5-5-7-5-3-3-3-3-3-3-5-3-0-0-0---0-0-0----| (x2)

Bridge 1
e|----------------------------------|
B|----------------------------------|
G|---------------5---4--------------|
D|-0-0-3-0-3-0-0---0---0-3-3-3-3-3--|
A|----------------------------------|
d|----------------------------------| (x1)

Riff 2 x2
Riff 1 x2
Riff 3 x2

Bridge 2
e|--------------------------|
B|--------------------------|
G|--------------------------|
D|-5-5-5-5-5-5-3-3-3-3-3-3--|
A|-5-5-5-5-5-5-3-3-3-3-3-3--|
d|-5-5-5-5-5-5-3-3-3-3-3-3--| (x1)

Riff 4
e|----------------------------------------------------|
B|----------------------------------------------------|
G|----------------------------------------------------|
D|----------------------------------------------------|
A|----5--------3-2--------------------1--0----3--4-5--|
d|-0-----0--0-------0-5----3--5--3--0-------0---------| (x4)

Riff 5
e|------------------------------------------------------------------|
B|------------------------------------------------------------------|
G|------------------------------------------------------------------|
D|-0-0-0-0-0-0-0-0-0-0-0-0-0-0-0-0-0-0-0-0-0-0-0-0-0-0-0-0-0-0-0-0--|
A|------------------------------------------------------------------|
d|------------------------------------------------------------------| (x1)

Riff 6
e|--------------------------------------------------|
B|--------------------------------------------------|
G|--------------------------------------------------|
D|-5*-5*-5*-5*-5*-5*-5*-5*-5*-5*-5*-5*-5*-5*-5*-5*--|
A|--------------------------------------------------|
d|--------------------------------------------------| (x8)

Bridge 3
e|-----------------------------------|
B|-----------------------------------|
G|--7-7-7-7-7-7-7-7-7-7-7-7-7-7-7-7--|
D|-----------------------------------|
A|-----------------------------------|
d|-----------------------------------| (x1)

Riff 2 (x1)

Riff 2 with abrupt ending
e|-------------------|
B|-------------------|
G|-------------------|
D|-------------------|
A|----------------3--|
d|--0-0-3-0-3-0-0----| (x1)

Riff 4 x4

Riff 7
e|--------------------------|
B|--------------------------|
G|----7---------------------|
D|-0--7--0--0-5---3-0--x-x--|
A|-0--5--0--0-5---3-0--x-x--|
d|-0-----0--0-5---3-0--x-x--|

End of song

Hope the tab was helpful. Have fun!
            

comments powered by Disqus
↑ Back to top | Lillasyster Tabs for Beratta Det For Lina. Lyrics for acoustic guitar and electric guitar. Tablatures and chords are parodies/interpretations of the original songs. You may use it for private study, scholarship, research or language learning purposes only