» » »

Lil Chris, Is There Anybody Out There Tabs (ver.1)

Artists:  A B C D E F G H I J K L M N O P Q R S T U V W X Y Z # 

Is There Anybody Out There Tabs (ver.1)

Lil Chris Tabs
 Rating:
4.2/5 (5 votes)
Is There Anybody Out There lessons Tabs too difficult? Try these video lessons and learn fast
1
                This is just the intro, verse, and chorus, i will try and tab the pre chorus soon !

E|-----------------------------------------------------------|
B|-----------------------------------------------------------|
G|----------333--------55--------333-------------------------|  x3
D|-----555--333--333---55----555-333-333--5------------------|
A|-----555--111--333---33----555-111-333--5------------------|
E|-----333-------111---------333-----111--3------------------|

When it comes to the verse you only play the second bit.


# Wanna learn to fly, wanna get so high 
Its kicking off! #

E|---------------------------------|
B|---------------------------------|
G|-----333-------------------------|
D|-555-333-333--5------------------|
A|-555-111-333--5------------------|
E|-333-----111--3------------------| 

# Somewhere we can get more, feel more, 
We're lifting off! #

E|---------------------------------|
B|---------------------------------|
G|-----333-------------------------|
D|-555-333-333--5------------------|
A|-555-111-333--5------------------|
E|-333-----111--3------------------| 

NOTE: PRE-CHORUS NOT TABBED YET.

# We're getting out of this place, #
# Now get out of my face, #
# We're kicking off! #

E|---------------------------------|
B|---------------------------------|
G|-----333-------------------------|
D|-555-333-333--5------------------|
A|-555-111-333--5------------------|
E|-333-----111--3------------------| 

# Bought a ticket out of this hole, #
# Play my rock n roll, #
# We're kicking off! #

E|---------------------------------|
B|---------------------------------|
G|-----333-------------------------|
D|-555-333-333--5------------------|
A|-555-111-333--5------------------|
E|-333-----111--3------------------| 

[PRE-CHORUS WOULD GO HERE]

[Chorus x2]

# Come oooooooooon! #
E|-----------------------------|
B|-----------------------------|
G|------333--------55----------|  
D|-555--333--333---55----------|
A|-555--111--333---33----------|
E|-333-------111---------------|

# Is there anybody out there? #

E|-----------------------------|
B|-----------------------------|
G|-----333---------------------|
D|-555-333-333--5--------------|
A|-555-111-333--5--------------|
E|-333-----111--3--------------|

# Anybody there? #

E|-----------------------------|
B|-----------------------------|
G|------333--------55----------|  
D|-555--333--333---55----------|
A|-555--111--333---33----------|
E|-333-------111---------------|

# Is there anybody out there? #

E|-----------------------------|
B|-----------------------------|
G|-----333---------------------|
D|-555-333-333--5--------------|
A|-555-111-333--5--------------|
E|-333-----111--3--------------|

# Alright so shake it off, 
# Shake it off, 
# We're kicking off! #

E|-----------------------------|
B|-----------------------------|
G|-----333---------------------|
D|-555-333-333--5--------------|
A|-555-111-333--5--------------|
E|-333-----111--3--------------|

# Somewhere we can get more, feel more, #
# We're lifting off! #

E|-----------------------------|
B|-----------------------------|
G|-----333---------------------|
D|-555-333-333--5--------------|
A|-555-111-333--5--------------|
E|-333-----111--3--------------|

[PRE-CHORUS WOULD GO HERE]

[Chorus x1]

# Come oooooooooon! #
E|-----------------------------|
B|-----------------------------|
G|------333--------55----------|  
D|-555--333--333---55----------|
A|-555--111--333---33----------|
E|-333-------111---------------|

# Is there anybody out there? #

E|-----------------------------|
B|-----------------------------|
G|-----333---------------------|
D|-555-333-333--5--------------|
A|-555-111-333--5--------------|
E|-333-----111--3--------------|

# Anybody there? #

E|-----------------------------|
B|-----------------------------|
G|------333--------55----------|  
D|-555--333--333---55----------|
A|-555--111--333---33----------|
E|-333-------111---------------|

# Is there anybody out there? #

E|-----------------------------|
B|-----------------------------|
G|-----333---------------------|
D|-555-333-333--5--------------|
A|-555-111-333--5--------------|
E|-333-----111--3--------------|

# Yeeeeeaaaahhhhhh! #
E|-----------------------------|
B|-----------------------------|
G|------333--------55----------|  
D|-555--333--333---55----------|
A|-555--111--333---33----------|
E|-333-------111---------------|

# Is there anybody out there? #

E|-----------------------------|
B|-----------------------------|
G|-----333---------------------|
D|-555-333-333--5--------------|
A|-555-111-333--5--------------|
E|-333-----111--3--------------|

# Anybody there? #

E|-----------------------------|
B|-----------------------------|
G|------333--------55----------|  
D|-555--333--333---55----------|
A|-555--111--333---33----------|
E|-333-------111---------------|

# Is there anybody out there? #

E|-----------------------------|
B|-----------------------------|
G|-----333---------------------|
D|-555-333-333--5--------------|
A|-555-111-333--5--------------|
E|-333-----111--3--------------|

[PRE CHORUS GOES HERE AS WELL]

# Come On! Come On! #

E|-----------------------------------------------------------|
B|-----------------------------------------------------------|
G|----------333--------55--------333-------------------------|  
D|-----555--333--333---55----555-333-333--5------------------|
A|-----555--111--333---33----555-111-333--5------------------|
E|-----333-------111---------333-----111--3------------------|

# Come On! (Yeeeeeaaaahhhhhh!) #

E|-----------------------------|
B|-----------------------------|
G|------333--------55----------|  
D|-555--333--333---55----------|
A|-555--111--333---33----------|
E|-333-------111---------------|

# Yeeeeaaaaahhhhhh! #

E|-----------------------------|
B|-----------------------------|
G|-----333---------------------|
D|-555-333-333--5--------------|
A|-555-111-333--5--------------|
E|-333-----111--3--------------|

# Wahoo Wahoo!! #

E|-----------------------------|
B|-----------------------------|
G|------333--------55----------|  
D|-555--333--333---55----------|
A|-555--111--333---33----------|
E|-333-------111---------------|

# Yeeeaaaahhhhh! #

E|-----------------------------|
B|-----------------------------|
G|-----333---------------------|
D|-555-333-333--5--------------|
A|-555-111-333--5--------------|
E|-333-----111--3--------------|

# Is there anybody out there? (Yeeeaaaahhhhh!) #

E|-----------------------------|
B|-----------------------------|
G|------333--------55----------|  
D|-555--333--333---55----------|
A|-555--111--333---33----------|
E|-333-------111---------------|

# Yeah!
# Yeeeaaaahhhhh!#
# Is there anybody out there? #
E|-----------------------------|
B|-----------------------------|
G|-----333---------------------|
D|-555-333-333--5--------------|
A|-555-111-333--5--------------|
E|-333-----111--3--------------|

# Anyone who cares? #

E|-----------------------------|
B|-----------------------------|
G|-----333---------------------|
D|-555-333-333--5--------------|
A|-555-111-333--5--------------|
E|-333-----111--3--------------|

# Yeeeeeeaaaaaaaaahhhhhhh! Right! #


I think that's perfect-ish. Send me a private message on the forum for any changes or anything.
            
Submit corrections

comments powered by Disqus
↑ Back to top | Lil Chris Tabs for Is There Anybody Out There. Lyrics for acoustic guitar and electric guitar. 1 Tablatures and chords are parodies/interpretations of the original songs. You may use it for private study, scholarship, research or language learning purposes only