>
 >
Wake Me At Sunset

Wake Me At Sunset Guitar Tabs

Light This City - Wake Me At Sunset chords, tabs, tablatures, lyrics

Guitar lessons | Add/correct | Request | Top 50 tabs Artists:  A B C D E F G H I J K L M N O P Q R S T U V W X Y Z 0-9

Wake Me At Sunset Guitar Tabs – Light This City

CD, Sheet music, Poster

Do you like Wake Me At Sunset? Share with your friends now
Tabs
Light This City
Wake me at sunset
c-g-c-f-a-d



Riff 1 Gt.1 [Heard on right side]
-------------------------------------|
-------------------------------------|
7--10--7-7-pm**-5--3--7-7-****-------|
8--8---8-8-8888-7--5--8-8-8888-------|
-------------------------------------|
-------------------------------------|
               repeats 4 times
-------------------------------[---------------------------|
-------------------------------[---------------------------|
7-10-7-7-****--12--10--7-7-****[--***-***-***-***-**-------|ph
7-7--7-7-7777--10--8---5-5-7777[8-555-555-555-555-55--3-5--|
-------------------------------[---------------------------|
-------------------------------[---------------------------|

Riff 1 Gt.2 [heard on left]
------------------------------------------------------------|
------------------------------------------------------------|
------------------------------------------------------------|
8-8-8-8-****-8-8-8-8-****-10-10-10-10-****-10-10-10-10-**---|
5-5-5-5-5555-5-5-5-5-5555-8--8---8--8-8888-8--8---8--8-8888-|
------------------------------------------------------------|
                                     repeat 4 times
-----------------------------------------------------|
-----------------------------------------------------|
-----------------------------------------------------|
8-8-8-8-****-8-8-8-8-****--7-7-7-7-****-7-7-7-7-**---|
6-6-6-6-6666-6-6-6-6-6666--8-8-8-8-8888-8-8-8-8-8888-|
-----------------------------------------------------|

----------------------------------------------|
----------------------------------------------|
---***-***-***-***-**-------------------------|
-8-888-888-888-888-88-7-8---------------------|
----------------------------------------------|
----------------------------------------------|

Riff 2 Gt.1 0:31-0:57
-----------------------------------------------------------|
-----------------------------------------------------------|
---***-***-------777------------***-***-------777----------|
-8-555-555-8-7-8----888-777^8-8-555-555-8-7-8----888-777^8-|
-----------------------------------------------------------|
-----------------------------------------------------------|

---------------------------------------|
---------------------------------------|
------------------------------___------|
-10-***-***-10/12-8-***-***--/   \-----|
-8--888-888-8-/10-6-666-666-5-6-5-6----|
-----------------------------------8^5-|


Riff 2 Gt.2  2 times
-------------------------------------------------|
-------------------------------------------------|
---***-***---------10-10-10----------------------|
12-888-888-12-10-12--------12-12-12-10-10-10-^12-|
-------------------------------------------------|
-------------------------------------------------|

-----------------------------------------|
------------------------------___--------|
-----------------------------/   \-------|
-10-***-***-10/12-8-***-***-3-5-3-5------|
-8--888-888-8-/10-6-666-666--------------|
------------------------------------8^5--|


Riff 3 melody w/wah  2 times 0:57-1:09
-----------------------------------------------------------|
-----------------------------------------------------------|
-10------------10----------------10------------------------|
-----12--10^12-----12--10^12-12~-----12--10^12--8-8-12-10~-|
-----------------------------------------------------------|
-----------------------------------------------------------|

Riff 3 rythm
---------------------------------------------------------------|
---------------------------------------------------------------|
-8-------8----10------10----8-------8----10-*******-11-*******-|
-8----*--8----7-----*--7----8----*--8----7--7777777-8--8888888-|
-6----6--6----8-----8--8----6----6--6----8--8888888-9--9999999-|
---------------------------------------------------------------|


Riff 4 melody 1:09-1:40
---------------------------------------|
---------------------------------------|
------**-----------------**------------|
-8--8-88-7^8-7^8-5---8-8-88-7^8-7^8-7--|
---------------------------------------|
---------------------------------------|

Riff 4 rythm gt
-------------------------------------|-end-----|
-------------------------------------|---------|
-------------------------------------|---------|
-------------------------------------|---------|
-5-5-**---------1----5-5-**---------3|-1-----3-|
-5-5-55-3^5-3^5-1----5-5-55-3^5-3^5-3|-1-----3-|

Riff 4 higher melody
-----------------------------------------------------------|
-----------------------------------------------------------|
-------*---*--------------------------*--*-----------------|
-12-12-12-12--10^12-10^12-8----12-12-12-12--10^12-10^12-10-|
-----------------------------------------------------------|
-----------------------------------------------------------|

last note of melody 2nd time
lower slides up to 12th
high slides up to 15th
                  ____
Solo             /    \
----------------15-18-15------------------------------------|
--------------15--------15-16~-15-16-15-13-15-13------------|
---*---*--*-15----------------------------------15-17-15-14-|
17-17-17-17-------------------------------------------------|
------------------------------------------------------------|
-------------------____-------------------------------------|
                  /    \
-----------------13-17-13-----------------------------------------|
---------------13--------13---------------------------------------|
-----*--*--*-14-------------14---14-15-14--12-14-12--10-12-10-----|
-15-15-15-15--------------------------------------------------12~-|
------------------------------------------------------------------|
------------------------------------------------------------------|

Rythm during solo
------------------------------------------------|
------------------------------------------------|
--------------888-------888-------888-------888-|
-*-***-|------888-------888-------888-------888-|
-5-555-|*-***-555-*-***-555-*-***-555-*-***-555-|
-5-555-|5-555-----5-555-----5-555-----5-555-----|


-----------------------------------------|
-----------------------------------------|
-------555-------555-------555-------555-|
-------555-------555-------555-------555-|
-*-***-333-*-***-333-*-***-333-*-***-333-|
-3-333-----3-333-----3-333-----3-333-----|


Riff 6 3:02-3:30
-------------------------------------------------|
-------------------------------------------------|
-------------------------------------------------|
----------------------^--------------------------|
-*-***-----*-----*-3/5-7---*-***-----*-----3/5-7-|
-5-555-8^5-5-6^3-3-3/5-7---5-555-8^5-5-6^3-3/5-7-|

--------------------------------------------]-gt1--]-gt2---|
--------------------------------------------]------]-------|
--------------------------------------------]---_--]-------|
----------------------_---------------------]--/ \-]--__---|
-*-***-----*-----*---/ \---*-***-----*-----*]-0-1-3]-/  \--|
-1-111-5^1-1-3^0-0--0-1-3--1-111-5^1-1-3^0-0]------]-1-3-5-|


Riff 7 3:30-4:28
--------------------------------------------------------------------|
--------------------------------------------------------------------|
--------------------------------------------------------------------|
--------------------------------------------------------------------|
5-***-5-***-3-***-0-3-5-***-5-***-3-***-0-7-8-***-8-***-3-***-3-777-|
5-555-5-555-3-333-0-3-5-555-5-555-3-333-0-7-8-888-8-888-3-333-3-777-|

harmony/melody
----------------------------------------------------------------|
11-----11----10-----6--10-10-10-11-----11----10-----6--13-13-13-|
x--***-x--***-x-***-x--x--x--x--x--***-x--***-x-***-x---x--x-x--|
8--888-8--888-7-777-3--7--7--7--8--888-8--888-7-777-3--10-10-10-|
----------------------------------------------------------------|
----------------------------------------------------------------|

--------------------------------------------------------|
15-----------15-----------13-----------10--13-13-13-----|
x--*--*---*--x--*--*---*---x-*---*--*--x---x--x-x-------|
12-12-12-12--12-12-12-12--10-10-10-10--7--10-10-10------|
--------------------------------------------------------|
--------------------------------------------------------|


Riff 8 4:28-4:50
--------------------------------------|
--------------------------------------|
--------------------------------------|
-----5-7-**-10-8-**--5-7--**----------|
5-**-3-5-55-8--6-66--3-5-876----------|
5-55---------------------876----------|


Riff 9 Gt.1 all notes tremelo picked 4:50-5:04
--------------------------------------|
--------------------------------------|
-----------12-------------------------|
---------12---13-10-12-13-12----------|
-10-12-13--------------------13-12-10-|
--------------------------------------|

Riff 9 Gt.2
---------------------------------------|
---------------------------------------|
------------15-------------------------|
----------15---17-13-15-17-15----------|
-13-15-17---------------------17-15-13-|
---------------------------------------|





Comments


Popular Light This City tabs & chords
Beginning With Release Tabs
Exile Intro Tabs
Fear Of Heights 1 Tabs
Guiding The North Star Tabs
Letter To My Abuser Tabs
Remains Of The Gods Intro Tabs
Sand And Snow Tabs
Stormchaser Tabs
The Eagle Intro 1 Tabs
Unwelcome Savior Tabs


Song lyrics



↑ Back to top | Tablatures and chords are parodies/interpretations of the original songs. You may use it for private study, scholarship, research or language learning purposes only
© 2014 AZChords.com Contact us | Privacy policy | DMCA | Add/correct tabs | Request tabs | Top 50 tabs