» » »

Unwelcome Savior Tabs (ver.1)

Artists:  A B C D E F G H I J K L M N O P Q R S T U V W X Y Z # 

Unwelcome Savior Tabs (ver.1)

Light This City
Rating:
5/5 (1 vote)

Tabs too difficult? Try these video lessons and learn fast.
                c-g-c-f-a-d
Gt. 1 heard on left
Gt.2 heard on right

Riff 1 Gt.1
---------------------------------|
---------------------------------|
---------------------------------|
---------------------------------|
-5-pm-6-*-5-*-6-*-5-*-6-*-5-*-6--|
-5-5----5---5---5---5---5---5----|


----------------------------------|
----------------------------------|
----------------------------------|
----------------------------------|
-4-pm-6-*-5-*-6-*--8-6-5--5-------|
-4-4----5---5---5--------8--8-6-5-|


---------------------------------|
---------------------------------|
---------------------------------|
---------------------------------|
-5-pm-6-*-5-*-6-*-5-*-6-*-5-*-6--|
-5-5----5---5---5---5---5---5----|


---------------|-------------------|
---------------|-------------------|Gt.2 only plays
---------------|---6---------------|th string notes
---------------|-------------------|
-4-pm-6-*-5-*-6|-1-111-7-777-------|
-4-4----5---5--|-1-111-7-777-------|

Gt.2 begining then same as Gt.1
------------------------------|
-------------_________--------|
------------/         \-------|
------------5-4-0-5-4-0-------|
-5-|-4---1--------------------|
-5-|-4---1--------------------|

Riff 2 melody  0:25
--------------------------------|
--------------------------------|
--------------------------------|
----12-12-12----12-12-12--10-12-|
-10----------10-----------------|
--------------------------------|

-------------------------------|
-------------------------------|
-------------------------------|
--12-12-12---/15-13-12---------|
8----------8-----------13------|
-------------------------------|

After 3rd time repeated
instead of last 4 notes above
     |
play v

--------------------------___---|
----------___-----___-----------|   \
--____---/   \---/   \--8-10-12-|
-/    \-8-10-12-8-10-12---------|
-8-10-12------------------------|
--------------------------------|


Riff 2 rythm gtr
-----------------|----------------|
--repeat 3 times-|----------------|
-----------------|----------------|
-----------------|----------------|
-1---3---5---8-8-|-1---3----------|
-1---3---5---8-8-|-1---3--4-4-4-4-|

Riff 2 lower melody @ 0:43
------------------------------------|
------------------------------------|
------------------------------------|
----8-8----8-8--7-8--8-8--12-10-8---|
-10-----10----------8---8---------8-|
------------------------------------|


Riff 3 melody 1:43
-------------------------------|
---___-------------------------|
--/   \-7-8----10-10-8-7-------|
5-5-7-8-----10----------10-8-7-|
-------------------------------|
-------------------------------|

----------------------------------|
-----__---------------------------|
----/  \-7-8-----------7-7--------|
---5-7-8-----10--10-10-----10-8-7-|
-6--------------------------------|
----------------------------------|


Riff 3 rythm just showing root notes
---------------------------------|
---------------------------------|
---------------------------------|
---------------------------------|
-5-----8----1-----3--------------|
-5-----8----1-----3--------------|


Riff 3 lower melody @ 1:53
--------------------------------|
--------------------------------|
----__----------7-7-------------|
---/  \--8-10-7-----10-8-7------|
6-6-8-10-------------------10-8-|
--------------------------------|

---------------------------------|
---------------------------------|
----___--------------------------|
---/   \--8-10-7--7-7-8-8-7------|
-6-6-8-10-------------------10-8-|
---------------------------------|

Riff 4 rythm 2:03
----------------------------------|
----------------------------------|
----------------------------------|
----------------------------------|
555--1-1-111--333--8888-----------|
555--1-1-111--333--8888-----------|


Riff 4 melodys
gt 2 plays          gt1 plays
-------------------]---------------------------------|
-------------------]---------------------------------|
---/8-8-888-777----]-12-12-12-12-12-10-10-10---------|
---------------888\]------------------------12-12-12-|
555----------------]---------------------------------|
555----------------]---------------------------------|


2nd part of riff 4 changes to this at begining
---------------------------|
---------------------------|
---------------------------|
-**--**--**--**------------|
-555-555-555-555-----------|
-555-555-555-555-----------|

string bends @ 2:20
---)(---)(---)----|
--8---10---11-----|
-11---13---14-----|
------------------|
------------------|
------------------|

Riff 5 @ 2:22
--------------------------------------------|
--------------------------------------------|
--------------------------------------------|
------*-***-------**--88-8-888-101010101010-|
5555--3-333-5555--33--66-6-666-8-8-8-8-8=8--|
5555--3-333-5555--33------------------------|

1st part of riff5 repeats then
Gt.1--------]Gt.2--------------|
--------to--]----to------------|
88888888--10]-12-----14--------|
xxxxxxxx--x-]--x------x--------|
66666666--8-]-10-----12--------|
------------]------------------|


Riff 6 Gt.2  @ 2:32
4 times]4 times-4 times]-2 times]---_-------------|
-------]------]--------]---****-]--/ \------------|
--****-]--****]---****-]-7-7777-]-7-8-7---------7-|
5-5555-]7-7777]-8-8888-]--------]-------10-8-7-8--|
-------]------]--------]--------]-----------------|
-------]------]--------]--------]-----------------|


Riff 6 Gt.1
4 times 4 times 4 times  2 times
-------]------]--------]--------]------------------|
-------]------]--------]--------]--__--------------|
-------]------]--------]--****--]-/  \-------------|
--****-]--****]---****-]8-8888--]8-10-8----------8-|
6-6666-]8-8888]10-10---]--------]------12-10-8-10--|
-------]------]--------]--------]------------------|
            
Tabs too difficult? Try these video lessons and learn fast.




comments powered by Disqus
↑ Back to top | Tablatures and chords are parodies/interpretations of the original songs. You may use it for private study, scholarship, research or language learning purposes only