» » »

Stormchaser Tabs (ver.1)

Artists:  A B C D E F G H I J K L M N O P Q R S T U V W X Y Z # 

Stormchaser Tabs (ver.1)

Light This City
Rating:
0/5 (0 votes)

Hard to play? Try these video lessons and learn fast.
                -------------------------------------------------------------------------------
-------------------------------------------------------------------------------

Tuning: Drop C (D A F C G C)

First song off Light This City's posthumous record, Stormchaser. It destroys.
This is my first tab, but it sounds pretty good to me. If anyone wants to make 
corrections, additions, tab the solo,
or indeed tab any other LTC song, you'd be a cool frood who really knows where their towel is.


Intro: Thunder rumbles, this is played without distortion (sometimes in a different order)
D|---------------------------------------------------------------------------|
A|---------------------------------------------------------------------------|
F|---7~----------------8~-----------5~---------------------------------------|
C|--7~----------------8~-----------5~----------------------------------------|
G|-5~----------------6~-----------3~-----------------------------------------|
C|0~----------------0~-----------0~------------------------------------------|

Now the same chords, but with distortion:
|---------------------------------------------------------------------------|
|---------------------------------------------------------------------------|
|----7777~------8888~----7--7-----7777~------10101010~-----10----10---------|
|----7777~------8888~---5--5------7777~------10101010~---10----10-----------|
|----5555~------6666~--3--3-------5555~------8-8-8-8~~--8-----8-------------|
|000--------000---------------000--------000--------------------------------|
  ***        ***        ****** ***        ***            * * * * * *

Fill A:
|---------------------------------------------------------------------------|
|---------------------------------------------------------------------------|
|---------------------------------------------------------------------------|
|0~-------------------------------------------------------------------------|
|0~------------------------------------------5h6p5---5----------3-5-6-------|
|0~------------------------------------------------6---6-5-0-0-0------------|
							    * * *

Verse Riff pt. 1:
|------------------------------------------------------------------------------|
|------------------------------------------------------------------------------|
|------------------------------------------------------------------7h8h10------|
|-------------------------------------------------------------7h8h10-----------|
|000000-----0000-5h6p5-5----000-3h5h6-000000-----0000000-5h6h8-----------------|
|000000-1p0-0000------6-6-5-000-------000000-1p0-0000000-----------------------|
  ******     ****            ***       ******     *******

Fill B:
|----------------------|
|----------------------|
|-10\7/9\5-------------|
|----------------------|
|-8\\5/7\3-------------|
|----------------------|

Fill B variation:
|--------------------|
|--------------------|
|-10\7/9\12----------|
|--------------------|
|-8\\5/7\10----------|
|--------------------|

Verse Riff pt. 2:
|----------------------------------------------------------------------------|
|----------------------------------------------------------------------------|
|----------------------------------------------------------------------------|
|----------------------------------------------------------------------------|
|---5p3h5----5p3h5----5p3h5----5h6p5----5-6~-3-6-5-3-5----12-13~-9-13-12-9-12|
|000------000------000------000------000---------------000-------------------|
  ***      ***      ***      ***      ***               ***

Alternate picking bridge (repeat as necessary):
|---------------------------------------------------------------------------|
|---------------------------------------------------------------------------|
|---------------------------------------------------------------------------|
|----------------------------------------10"--------------------------------|
|12"----9"12"13"12"----9"-12"-13"-12"--------12"-9"---13"-9"----------------|
|---------------------------------------------------------------------------|

Bridge part II? (repeat as necessary):
|---------------------------------------------------------------------------|
|---------------------------------------------------------------------------|
|---------------------------------------------------------------------------|
|7\------------9910\-------3-5-7\------------9910\--------8p7---3-----------|
|5\------------778\\-------1-3-5\------------778\\--------8p7-0-3-----------|
|--0-000-0-000-------0-000--0-0---0-000-0-000-------0-000-8p7-0-3-----------|
    * *** * ***       * ***  * *   * *** * ***       * ***     *

Repeat Fill A, verse riff pt. 2, and then after fill B bust out this sexy number:
|---------------------------------------------------------------------------|
|---------------------------------------------------------------------------|
|---------------------------------------------------------------------------|
|10101010---10101010---10101010---101212121212------------------------------|
|8-8-8-8----8-8-8-8----8-8-8-8----8-1010101010-8888~--8888~--8777---7888----|
|8-8-8-8----8-8-8-8----8-8-8-8----8-1010101010-0000---0000---0000---0000----|
					 * * *

(If someone can figure out the solo(s), they'd be super awesome)

Figure out how fast to strum the chords like a big boy/girl:
|--------------------------------------------------------------------------|
|--------------------------------------------------------------------------|
|---------------17---------------------------------------------------------|
|14-15-14-15-14---15-14----10-12-10-14h15p14------------14-15~-------------|
|12-12-12-12-12--------15~-8--8--8----------15-12~-12-15-------------------|
|12-12-12-12-12------------8--8--8-----------------------------------------|

(Perhaps those fills will give someone a start on the solo? hint hint)

Fill C:
|--------------------|
|8-----10-----11~----|
|10b12-12b14-13b15~--|
|--------------------|
|--------------------|
|--------------------|

Outro riff:
|---------------------------------------------------------------------------|
|---------------------------------------------------------------------------|
|---------------------------------------------------------------------------|
|--10----12----14h15p14---------14h15---------------------------------------|
|-8----12----12--------15-12--12--------------------------------------------|
|8---10----12---------------15----------------------------------------------|
  *** * * * * *

|---------------------------------------------------------------------------|
|---------------------------------------------------------------------------|
|--------------------------------12h14--------------------------------------|
|--10----12----14h15p14--12-14-15-------------------------------------------|
|-8----12----12--------15---------------------------------------------------|
|8---10----12---------------------------------------------------------------|
  *** * * * * *

Then guitar 2 comes in harmonizing the fills like this:
|---------------------------------------------------------------------------|
|---------------------------------------------------------------------------|
|---------------------------------------------------------------------------|
|--10----12----10h12p10-------10h12-----------------------------------------|
|-8----12----12--------12-8--8----------------------------------------------|
|8---10----12--------------12-----------------------------------------------|
  *** * * * * *

|---------------------------------------------------------------------------|
|---------------------------------------------------------------------------|
|-------------------------------9h10----------------------------------------|
|--10----12----10h12p10--8-10-12--------------------------------------------|
|-8----12----12--------12---------------------------------------------------|
|8---10----12---------------------------------------------------------------|
  *** * * * * *

At the end of the song, just play the last note twice and hold it real pretty like.
That's about it, tell me what you think of my first tab.

I've got Anhedonia Epidemic too, I'll put it up when I have some spare time.

************************************
| /   slide up
| \   slide down
| h   hammer-on
| p   pull-off
| ~   vibrato
| +   harmonic
| x   Mute note
| b   Bend
| pb  Pre-bend
| br  Bend release
| pbr Pre-bend release
| brb Bend release bend
************************************
            
Hard to play? Try these video lessons and learn fast. | Correct




comments powered by Disqus
↑ Back to top | Tablatures and chords are parodies/interpretations of the original songs. You may use it for private study, scholarship, research or language learning purposes only