» » »

Light This City, Sierra Tabs (ver.1)

Artists:  A B C D E F G H I J K L M N O P Q R S T U V W X Y Z # 

Sierra Tabs (ver.1)

Light This City Tabs
 Rating:
4.2/5 (5 votes)
Sierra lessons Tabs too difficult? Try these video lessons and learn fast
1
                this song is really easy...
not 100% right but sounds almost dead on...

my name is Ghost

anyways, Drop C(CGCFAD)

riff#1

D|----------------------------------------------------|
A|-------777---------777------------------------------|
F|----444---444---444---444---666777999777666---------|
C|-555---------555---------777---------------8--8~~~~-|
G|----------------------------------------------------|
C|----------------------------------------------------|

riff#2
         10's not 1 0                            12's and 11's
D|-----------------------------------------------------------------------|
A|-------101010---------101010---------101010----------------------------|
F|----777------777---777------777---777------777121212121212111111111111-|
C|-999------------999------------999-------------------------------------|
G|-----------------------------------------------------------------------|
C|-----------------------------------------------------------------------|

riff#3

D|------------------------|
A|------------------------|
F|------4444~-------3333~-|
C|-5~~~~------7~~4~~------|
G|-5~~~~------7~~4~~------|
C|-5~~~~------7~~4~~------|

riff#4

D|--------------------------------------------------------------|
A|--------------------------------------------------------------|
F|--------------------------------------------------------------|
C|-55-55-55-55-55-77-77-77-77-77-99-99-99-99-99--99-99-99-99-99-|
G|-55-55-55-55-55-77-77-77-77-77-99-99-99-99-99--99-99-99-99-99-|
C|-55-55-55-55-55-77-77-77-77-77-99-99-99-99-99--99-99-99-99-99-|
palm mute........................................................

riff#5

D|-------------------------|
A|-------------------------|
F|-------------------------|
C|-55-55-55-55-55-77-77-77-|
G|-55-55-55-55-55-77-77-77-|
C|-55-55-55-55-55-77-77-77-|

riff #6

D|--------------------------------------------------------------|
A|--------------------------------------------------------------|
F|--------------------------------------------------------------|
C|----444222444---444222000---555444222----------------44-44-44-|
G|-222---------000---------------------4445554h5p40~~--22-22-22-|
C|-------------------------555----------------------------------|

riff#7
                     again, 11's
D|---------------------------------|
A|---------------------------------|
F|-------------------999111111-----|
C|-4-2~-55--777~-77--xxx-xxx---44--|
G|-2-0~-55--555~-77--777~999---22--|
C|------55-------77----------------|

riff#8

D|-------------|
A|-------------|
F|-------------|
C|-4-2~-5~5----|
G|-2-0~-5~5----|
C|------5~5-4~~|

riff#9:guitar 1
          
D|------------------------------------------------------------------------|
A|------------------------------------------------------------------------|
F|------------------------------------------------------------------------|
C|------------------------------------------------------------------------|
G|---101010109999----101010109999----1212121210101010----1515151514141414-|
C|-99------------1212------------1414----------------1717-----------------|

riff#9:guitar 2

D|-------------------------------------------------------------|
A|-------------------------------------------------------------|
F|-------------------------------------------------------------|
C|-------------------------------------------------------------|
G|---99997777----99997777-----101010109999----1414141412121212-|
C|-99--------1212---------1414------------1717-----------------|

riff#10:guitar 1

D|----------------------|
A|----------------------|
F|----------------------|
C|----------------------|
G|-----1515151514141414-|
C|-1717-----------------|

riff# 10:guitar 2

D|-----------------------|
A|-----------------------|
F|-----------------------|
C|-----------------------|
G|------1414141412121212-|
C|-1717------------------|

last note of song...
D|-------------|
A|-------------|
F|-------------|
C|-7~~~~~~~~~--|
G|-7~~~~~~~~~--|
C|-7~~~~~~~~~--|

riffs:
#1 then #2 2x's
#3 1x
#2 1x
#3 1x
#2 1x
#4 2x's
#5 1x
#6 4x's
#3 1x
#2 1x
#3 1x
#2 1x
#4 2x's
#5 1x
#6 4x's
#7 2x's
#8 1x
#9 4xs
#10 3xs

like I said, not completely right, but close enough...
            
Submit corrections

comments powered by Disqus
↑ Back to top | Light This City Tabs for Sierra. Lyrics for acoustic guitar and electric guitar. 1 Tablatures and chords are parodies/interpretations of the original songs. You may use it for private study, scholarship, research or language learning purposes only