» » »

Remains Of The Gods Tabs (ver.1)

Artists:  A B C D E F G H I J K L M N O P Q R S T U V W X Y Z # 

Remains Of The Gods Tabs (ver.1)

Light This City
Rating:
0/5 (0 votes)

Hard to play? Try these video lessons and learn fast.
                (Intro)
okay im gonna figure out the rest of the song, and im also gonna tab the rest of Guiding 
North Star, as well as make a guitar pro tab of it. so here it is enjoy.

00:28 - 00:57

------------------------------------------------------------------------|
------------------------------------------------------------------------|
(sixteen of these powerchords)------------------------------------------|
-7-----------------------------7777777755555555-------------------------|
-5-----------------------------8888888877777777-------------------------|
------------------------------------------------------------------------|

00:43 - 00:57 this is the little lead in between

------------------------------------------------------------------------|
------------------------------------------------------------------------|
-10-10-10-10-10-10-10-10-9-9-9-9----------------------------------------|
---------------------------------10-10-10-10-10-10-10-10-10-10-10-10----|
------------------------------------------------------------------------|
------------------------------------------------------------------------|

-------------------------------------------------------------------------|
-------------------------------------------------10-10-10-10-10-10-10-10-|
-10-10-10-10-10-10-10-10-10-10-10-10-12-12-12-12-------------------------|
-------------------------------------------------------------------------|
-------------------------------------------------------------------------|
-------------------------------------------------------------------------|

00:57 - 01:08

------------------------------------------------------------------------|
------------------------------------------------------------------------|
------------------------------------------------------------------------|
-0-----------------2--2--8-7-5-7-5-3-3----------------------------------|
-0-0-8-7-5-7-5-3-3-3--3-------------------------------------------------|
-0-0-------------------00-----------------------------------------------|

01:08 - 01:21   * = pinch harmonic

------------------------------------------------------------------------|
-*-------------------------------------------------------*--------------|
-3-------------------------------------------------------3--------------|
-----------------------------2-------------8-7-5-7-5-3-3----------------|
---000-000-000-8-7-5-7-5-3-3-3-000-000-000-----------------000-000-000--|
---000-000-000-----------------000-000-000-----------------000-000-000--|
            
Hard to play? Try these video lessons and learn fast. | Correct




comments powered by Disqus
↑ Back to top | Tablatures and chords are parodies/interpretations of the original songs. You may use it for private study, scholarship, research or language learning purposes only