» » »

Guiding The North Star Tabs (ver.1)

Artists:  A B C D E F G H I J K L M N O P Q R S T U V W X Y Z # 

Guiding The North Star Tabs (ver.1)

Light This City
Rating:
0/5 (0 votes)

Hard to play? Try these video lessons and learn fast.
                ---------------------------------------------------------------|
---------------------------------------------------------------|
---------------------------------------------------------------|
---------------6--7--------------------7--6--------------------|
4--------------7--9--0---------2-------9--7--------------------|
4-444-444-44---------0-000-000-2-222---------------------------| repeat twice

------------------------------------------------------|
------------------------------------------------------|
-6---6---4---2---6---6---7---4------------------------|
-7---7---6---4---7---7---9---6------------------------|
------------------------------------------------------|
--000-000-000-000-000-000-000-------------------------| X 2


dont include|------------------------repeat 4 X-------------------------|
-------|----------------------------------------------------------------|
-------|------6-4--------------------------------------------6-4--------|
-------|------7-6-6-7--------------------6-7-----------------7-6-6-7----|
0-----2|----------7-9----4---4---4---4---7-9-0---------2---------7-9----|
0-----2|-------------444-444-444-444-444-----0-000-000-2-222------------|


------------repeat twice--------------------------------------------------|
--------------------------------------------------------------------------|
----------------------------------7--------------------------4------------|
-4-----7----6----6----7-----6-7h9---7--6<(lr)-4------7----6--6------------|
-5-----9----7----7----9---9--------------7----5------9----7-----3---------|
----------------------------------------------------------------3-333-333-|


thata all i have for now, i will get more but its rather easy song to figure out, my 1 
anniversary playing guitar was not too long ago and i got it. so you can too. for band 
            
Hard to play? Try these video lessons and learn fast. | Correct




comments powered by Disqus
↑ Back to top | Tablatures and chords are parodies/interpretations of the original songs. You may use it for private study, scholarship, research or language learning purposes only