>
 >
Guardian In A Passerby

Guardian In A Passerby Guitar Tabs

Light This City - Guardian In A Passerby chords, tabs, tablatures, lyrics

Guitar lessons | Add/correct | Request | Top 50 tabs Artists:  A B C D E F G H I J K L M N O P Q R S T U V W X Y Z 0-9

Guardian In A Passerby Guitar Tabs – Light This City

CD, Sheet music, Poster

Do you like Guardian In A Passerby? Share with your friends now
Tabs
Light This City
A Guardian In A Passerby
c-g-c-f-a-d

all Gt. 1 tabbed 1st
[heard on left side]

Riff 1
---------------------------------------|
---------------------------------------|
--------_------------------_-----------|
-------/ \----------------/ \-------7--|
5-pm*-5-6-5---4----5-***-5-6-5---4--5\-|
5-555-------8-4----5-555-------8-4-----|

part B
--------------------------------------------------------|
--------------------------------------------------------|
------------_---------------------------_---------------|
-----------/ \-------------------------/ \--------------|
***-1-***-1-2-1-***-0-***-0-***-1-***-1-2-1-***-0-***-3-|
111---111-------000---000---111---111-------000---333---|

Part C
--------------------------------------------------------|
--------------------------------------------------------|
------------_---------------------------_---------------|
-----------/ \-------------------------/ \--------------|
***-5-***-5-6-5-***-4-***-4-***-5-***-5-6-5-***-4-***-4-|
555---555-------444---444---555---555-------444---444---|

Part B,C,
 Riff 1 ending
-------------------------------------------------------|
-------------------------------------------------------|
------------_---------------------------_--------------|
-----------/ \-------------------------/ \--7-7--10-10-|
***-1-***-1-2-1-***-0-***-0-***-1-***-1-2-1-5-5--8--8--|
111---111-------000---000---111---111------------------|

Riff 2  3 times 0:30-0:54,1:15-1:38
-----------------------_-----_--------------------------_-----_---|
----------------------/ \---/ \------------------------/ \---/ \--|
3--***-3--***-3--***-5-7-5-3-5-3-2--***-2--***-2--***-7-8-7-5-7-5-|
5--555-5--555-5--555-------------3--333-3--333-3--333-------------|
------------------------------------------------------------------|
------------------------------------------------------------------|

Part B 3 times
-----------------------_-----_--------------------------_-----_---|
---***----***----***--/ \---/ \-----***----***----***--/ \---/ \--|
3--333-3--333-3--333-5-7-5-3-5-3-2--222-2--222-2--222-7-8-7-5-7-5-|
------------------------------------------------------------------|
------------------------------------------------------------------|
------------------------------------------------------------------|

Riff 1 repeats
Riff 3    1:39-1:49
--------------------------------------------------------------|
--------------------------------------------------------------|
3333-3333---------------------3333-3333--------------------3--|
5555-4444---------------------5555-4444--------------------5\-|
-----------1***1***-0***0***-------------1***1***-0***0***----|
-----------11111111-00000000-------------11111111-00000000----|

--------------------------------------|
--------------------------------------|
3333-3333-----------------------------|
5555-4444-------------4---------------|
------------***---***------000-----00-|
----------1-111-1-111------000-----00-|


Riff 4 2:02-2:14
a good way to get the right tone for this riff
is to use a wah pedal almost closed [toe down]
'///'= tremelo picked
2 times ///'d then 1 time single notes
---------///-----///-///--///------|
-///-///-3--///--3----4---3--///---|
-3---5-------3----------------5----|
-----------------------------------|
-----------------------------------|
-----------------------------------|

Riff 5 rythm just showing progression
[fill in with picking] 2:15-2:31
---------------------------------|
---------------------------------|
-3-----2----0----2---------------|
-5-----3----1----3---------------|
---------------------------------|
---------------------------------|

Riff 6 2:31-end
--------------------------------------------|
--------------------------------------------|
-----7^5--------7^8-5-----7^5---------7^8-5-|
-8-------8---8---------7------8---7---------|
--------------------------------------------|
--------------------------------------------|

----------------------------------------------|
------------------------------------------6\--|
-----7^5--------7^8-5-----7^5---------7^8-----|
-5-------8---5---------7------8---7-----------|
----------------------------------------------|
----------------------------------------------|
/////////////////////////////////////////////
/////////////////////////////////////////////
GUITAR 2 [RiGHT]
Riff 1 Gt.2
same as Gt.1

Riff 2 2 times
------------------------------------------------|
------------------------------------------------|
------------------------------------------------|
------------------------------------------------|
5-***-5-***-5-***-5-***-0-***-0-***-0-***-0-*---|
5-555-5-555-5-555-5-555-0-000-0-000-0-000-0-000-|

------------------------------------------------|
------------------------------------------------|
------------------------------------------------|
------------------------------------------------|
1-***-1-***-1-***-1-***-3-***-3-***-3-***-3-*---|
1-111-1-111-1-111-1-111-3-333-3-333-3-333-3-333-|


------------------------------------------------------|
------------------------------------------------------|
---***---***---***-----------***---***---***----------|
-5-555-5-555-5-555-7^8-5^7-3-333-3-333-3-333-8^10-7^8-|
------------------------------------------------------|
------------------------------------------------------|


Riff 3
---------------------------------------------------------------|
---------------------------------------------------------------|
---------------------------------------------------------------|
---------------------------------------------------------------|
-5555-4444-1***1***-0***0***--5555--4444--1***1***-0***0***-5--|
-5555-4444-11111111-00000000--5555--4444--11111111-00000000-5\-|


-----------------------------------------|
-----------------------------------------|
-----------------------------------------|
-----------------------------------------|
-5555-4444-----***---***--5---000-----00-|
-5555-4444---1-111-1-111------000-----00-|


Riff 4 picked single notes last time
------------------------------------|
///-///-///-///-///-///-///--///----|
-0--2---3---0---3---5---3----2------|
------------------------------------|
------------------------------------|
------------------------------------|

Riff 5 2:15-end
--------------------------------------------|
--------------------------------------------|
--------------------------------------------|
------8^7-5------7^8-7------8^7-5-----7^8-7-|
-10---------10---------8-----------8--------|
--------------------------------------------|

---------------------------------------------|
---------------------------------------------|
---------------------------------------------|
-----8^7-5------7^8-7------8^7-5-----7^8-10\-|
--6---------6----------8----------8----------|
---------------------------------------------|





Comments


Popular Light This City tabs & chords
Beginning With Release Tabs
Beginning With Release 1 Tabs
City Of The Snares Tabs
Exile Intro Tabs
Fear Of Heights Tabs
Fear Of Heights 1 Tabs
Last Catastrophe Tabs
Sand And Snow Tabs
Sierra Tabs
Stormchaser Tabs


Song lyrics



↑ Back to top | Tablatures and chords are parodies/interpretations of the original songs. You may use it for private study, scholarship, research or language learning purposes only
© 2014 AZChords.com Contact us | Privacy policy | DMCA | Add/correct tabs | Request tabs | Top 50 tabs