>
 >
City Of The Snares

City Of The Snares Guitar Tabs

Light This City - City Of The Snares chords, tabs, tablatures, lyrics

Guitar lessons | Add/correct | Request | Top 50 tabs Artists:  A B C D E F G H I J K L M N O P Q R S T U V W X Y Z 0-9

City Of The Snares Guitar Tabs – Light This City

CD, Sheet music, Poster

Do you like City Of The Snares? Share with your friends now
Tabs
Light This City

City of the snares
c-g-c-f-a-d
right side is tabbed 1st
left side gtrs are near bottom
riff 1 0:00-0:17,
----------------------------------------------------------------------------|
----------------------------------------------------------------------------|
----------------------------------------------------------------------------|
----------------------------------------------------------------------------|
-6------6-------2-------4-------6------6-------2--------4--************-----|
-6------6-------2-------4-------6------6-------2--------4--444444444444-----|

Riff 2 0:17-0:34 repeats 2 times
-----------------------------------------------------|
-----------------------------------------------------|
-----^--8^---^-8^---^--8^------^--8^---^-8^---^--8^--|
----8-9---9-8-9--9-8-9---9----8-9---9-8-9--9-8-9---9-|
--6|------------------------6|-----------------------|
--6|------------------------6|-----------------------|

----------------------------------------------------|
----------------------------------------------------|
----^--8^---^-8^---^--8^------^--8^---^-8^---^--8^9-|
---8-9---9-8-9--9-8-9---9---8-9---9-8-9--9-8-9------|
-2|-----------------------4|------------------------|
-2|-----------------------4|------------------------|



riff 3 0:36-0:53 repeats 2 times
-------------------------------------------------------|
-------------------------------------------------------|
-********----************-********----********---------|
-99999999-9|-888888888888-66666666-6|-88888888-8|------|
-------------------------------------------------------|
-------------------------------------------------------|


------------------------------------------------------|
---------------------------------------------_--------|
-********----************-********----****--/ \-------|
-99999999-9|-888888888888-66666666-6|-5555-5-6-8------|
------------------------------------------------------|
------------------------------------------------------|


Riff 4 0:53-1:08 4 times
------------------------------------------------------|
----------****----------****----------****--------_---|
-********-8888-********-8888-********-8888-****--/ \--|
-99999999------88888888------66666666------5555-5-6-8-|
------------------------------------------------------|
------------------------------------------------------|


Riff 5 1:08-1:24 2 times
----------------------------------------------|
----------------------------------------------|
----------------------------------------------|
----------------------------------------------|
-*******6|---********************-2|********-4|
-666666-6|---44444444444422222222-2|44444444-4|


------------------------------------------------ending--|
--------------------------------------------------------|
----------------------------------------------|---------|
----------------------------------------------|5-5-5----|
-*******6|---********************-2|********-1|---------|
-666666-6|---44444444444422222222-2|11111111-1|---------|





riff 6 2:49
------------------------------------------------------------------------------------------|
------------------------------------------------------------------------------------------|
---------------------------------------------------------------------8-88-9|-6-66--8-6----|
-----------------------------------------9-8-6----6-66--8|-9-99-9999-------------------9-8|
-2--22--4|--6-66--6666--7-77---9---6-66--------9------------------------------------------|
------------------------------------------------------------------------------------------|

this 3 times
----------------------------------------------------|
----------------------------------------------------|
-------------------------------6--------------------|
-6--66---8--9-99--9999--9--99-----8-88--9-8-6-4-----|
----------------------------------------------------|
----------------------------------------------------|

last time
----------------------------------------------|
----------------------------------------------|
--------------------9-99--11--8~--------------|
-6-66--8-9-99--9999---------------------------|
----------------------------------------------|
----------------------------------------------|



rythm during tapping is 6th and 5th strings

6-2-4-5-6 filled in with picking
/////////////////////////////////////////////////////////////|
/////////////////////////////////////////////////////////////|
/////////////////////////////////////////////////////////////|
LEFT SIDE
Riff 1
----------------------------------------------------------------------------------|
----------------------------------------------------------------------------------|
----^--4^---^--4^---^--4^------^--4^---^--4^---^--4^-----^--4^---^--4^---^--4^----|
---4-6---6-4-6---6-4-6---6----4-6---6-4-6---6-4-6---6---4-6---6-4-6---6-4-6---6---|
-6--------------------------6-------------------------2---------------------------|
-6--------------------------6-------------------------2---------------------------|

-------------4 times--------|ending--------------------------------|
----------------------------|--------------------------------------|
----^--4^---^--4^---^--4^6--|------^--4^---^--4^---^--4^-----------|
---4-6---6-4-6---6-4-6------|-----4-6---6-4-6---6-4-6---6----------|
-4--------------------------|--6-----------------------------------|
-4--------------------------|--6-----------------------------------|

r3
-----------------------------------------------------|
-----------------------------------------------------|
-*********************************************-------|
-66666666-6|-----------------------------------------|
------------999999999999-77777777-7-99999999-9-------|
-----------------------------------------------------|

-----------------------------------------------------|
-----------------------------------------------------|
-*********************************************-------|
-66666666-6|------------------------------^----------|
------------999999999999-77777777-7-6666-6-7-6-------|
-----------------------------------------------------|


R4
-----------------------------------------------------|
-----------------------------------------------------|
-----------------------------------------------------|
-66666666-9999----------9999---------9999-------^----|
---------------99999999-----77777777------6666-6-7-6-|
-----------------------------------------------------|


R5
----------------------------------------------|
----------------------------------------------|
----------------------------------------------|
----------------------------------------------|
-*******6|---********************-2|********-4|
-666666-6|---44444444444422222222-2|44444444-4|


------------------------------------------------ending-|
-------------------------------------------------------|
----------------------------------------------|--------|
----------------------------------------------|--------|
-*******6|---********************-2|********-1|-6-6-6--|
-666666-6|---44444444444422222222-2|11111111-1|--------|



R6 2:49

---------------------------------------|
---------------------------------------|
---------------------------------------|
------------------------4--------------|
-6-66-8-9-9-9-9999-2-22-2-4-44-5-555---|
-6-66-8-9-9-9-9999-2-22---4-44-5-555---|

R7 2:58
-------------------------------------|-end-------|
-------------------------------------|-9-99-11-8-|
------6-8-88-8888-8-88-9-6-66-8-6----|-----------|
-9-99-----------------------------9-8|-----------|
-------------------------------------|-----------|
-------------------------------------|-----------|
 
Solo repeats 4 times [on last time 19 slides to 21

                                       __      __      __      __                  
----T^---T^---T^---T^---T^---T^-^----T/  \---T/  \---T/  \---T/  \--|
/9-16-9-16-9-16-9-17-9-16-9-14-9-12-16-12-9-16-12-9-16-12-9-16-12-9-|
--------------------------------------------------------------------|
--------------------------------------------------------------------|
--------------------------------------------------------------------|
--------------------------------------------------------------------|


    __      __      ____
--T/  \---T/  \---T/    \----T/\----T^----T^----T^----T^----T^----T^---T-/\--T/\--T/\--T/\----|
-17-12-9-16-12-9-14-12-9-12-16--12-16-12-16-12-16-12-17-12-16-12-14-12-12-\7-16-7-14-7-12-7/8-|
----------------------------------------------------------------------------------------------|
----------------------------------------------------------------------------------------------|
----------------------------------------------------------------------------------------------|
----------------------------------------------------------------------------------------------|

-T/\--T/\--T/\----|
-16-8-17-8-19-8---|
------------------|
------------------|
------------------|
------------------|





Comments


Popular Light This City tabs & chords
Beginning With Release Tabs
Exile Intro Tabs
Fear Of Heights Tabs
Fear Of Heights 1 Tabs
Guiding The North Star Tabs
Last Catastrophe Tabs
Letter To My Abuser Tabs
Stormchaser Tabs
The Eagle Intro Tabs
The Eagle Intro 1 Tabs


Song lyrics



↑ Back to top | Tablatures and chords are parodies/interpretations of the original songs. You may use it for private study, scholarship, research or language learning purposes only
© 2014 AZChords.com Contact us | Privacy policy | DMCA | Add/correct tabs | Request tabs | Top 50 tabs