>
 >
Beginning With Release 1

Beginning With Release 1 Guitar Tabs

Light This City - Beginning With Release 1 chords, tabs, tablatures, lyrics

Guitar lessons | Add/correct | Request | Top 50 tabs Artists:  A B C D E F G H I J K L M N O P Q R S T U V W X Y Z 0-9

Beginning With Release 1 Guitar Tabs – Light This City

CD, Sheet music, Poster

Do you like Beginning With Release 1? Share with your friends now
TabsTabs v2
-------------------------------------------------------------------------------
                             Beginning With Release - Light This City
-------------------------------------------------------------------------------
Listen to the song for timing.
Tuning:CGCFAD

D|-----------------------------------------------------------------------------|
A|-----------------------------------------------------------------------------|
F|-12-10-12/19-17-15-17-19-20-19h20p19-19-17-15-17-19-17-19-20-22--(8x)--------|
C|-----------------------------------------------------------------------------|
G|-----------------------------------------------------------------------------|
C|-----------------------------------------------------------------------------|

D|-------------------------------------------------------------------------------|
A|-------------------------------------------------------------------------------|
F|-------------------------------------------------------------------------------|
C|----5--555----------------------1--111-----------------------------------------|
G|----5--555----------------------1--111-----------------------------------------|
C|----5--555-777-888-777-555-333--1--111---333-555-777-5h7p5-3--(4x)-------------|

D|------------------------------------------------------------------------------|
A|------------------------------------------------------------------------------|
F|------------------------------------------------------------------------------|
C|----5--555----------------------1--111----------------------------------------|
G|----5--555----------------------1--111----------------------------------------|
C|----5--555--7-0-8-0-7-0-5-0-3---1--111--3-0-5-0-7-0-5h7p5-3--(4x)-------------|


D|-----------------------------------------------------------------------------|
A|-----------------------------------------------------------------------------|
F|-----------------------------------------------------------------------------|
C|----111-333-555-----8-7------------------------------------------------------|
G|----111-333-555---------8----------------------------------------------------|
C|----111-333-555--------------------------------------------------------------|

D|-----------------------------------------------------------------------------|
A|-----------------------------------------------------------------------------|
F|-------------10---------------10---------------------------------------------|
C|---7h8-10-12----12-10-8-10-12----12------------------------------------------|
G|-----------------------------------------------------------------------------|
C|-----------------------------------------------------------------------------|

D|------------------------------------------------------------------------------|
A|------------------------------------------------------------------------------|
F|-------------12-10----------10-12-10------------------------------------------|
C|---7h8-10-12-------12-10-12---------------------------------------------------|
G|------------------------------------------------------------------------------|
C|------------------------------------------------------------------------------|

D|------------------------------------------------------------------------------|
A|------------------------------------------------------------------------------|
F|-------------10---------------10----------------------------------------------|
C|---7h8-10-12----12-10-8-10-12----12-------------------------------------------|
G|------------------------------------------------------------------------------|
C|------------------------------------------------------------------------------|


D|------------------------------------------------------------------------------|
A|------------------------------------------------------------------------------|
F|-------------12-10-9-14-12-10-15-14-------------------------------------------|
C|---7h8-10-12------------------------------------------------------------------|
G|------------------------------------------------------------------------------|
C|------------------------------------------------------------------------------|
Whole Riff 4x

 D|-------------------------------------------------------------------------------|
A|--------------------------------------------------------------------------------|
F|--------------------------------------------------------------------------------|
C|----5--555----------------------1--111------------------------------------------|
G|----5--555----------------------1--111------------------------------------------|
C|----5--555--7-0-8-0-7-0-5-0-3---1--111--3-0-5-0-7-0-5h7p5-3--(4x)---------------|
 D|-------------------------------------------------------------------------------|
A|--------------------------------------------------------------------------------|
F|--------------------------------------------------------------------------------|
C|----5--555----------------------1--111------------------------------------------|
G|----5--555----------------------1--111------------------------------------------|
C|----5--555--7-0-8-0-7-0-5-0-3---1--111--3-0-5-0-7-0-5h7p5-3---------------------|
   D|-----------------------------------------------------------------------------|
A|--------------------------------------------------------------------------------|
F|--------------------------------------------------------------------------------|
C|----8--888----------------------8--888----------7--777--------------------------|
G|----8--888----------------------8--888----------7--777--------------------------|
C|----8--888-10-0-12-0-10-0-8-0-7-8--888--8h10p8--7--777--7h8p7---(3x)------------|
 D|-------------------------------------------------------------------------------|
A|--------------------------------------------------------------------------------|
F|-------------10---------------10------------------------------------------------|
C|---7h8-10-12----12-10-8-10-12----12---------------------------------------------|
G|--------------------------------------------------------------------------------|
C|--------------------------------------------------------------------------------|

D|------------------------------------------------------------------------------|
A|------------------------------------------------------------------------------|
F|-------------12-10----------10-12-10------------------------------------------|
C|---7h8-10-12-------12-10-12---------------------------------------------------|
G|------------------------------------------------------------------------------|
C|------------------------------------------------------------------------------|

D|------------------------------------------------------------------------------|
A|------------------------------------------------------------------------------|
F|-------------10---------------10----------------------------------------------|
C|---7h8-10-12----12-10-8-10-12----12-------------------------------------------|
G|------------------------------------------------------------------------------|
C|------------------------------------------------------------------------------|


D|-----------------------------------------------------------------------|
A|-----------------------------------------------------------------------|
F|-------------12-10-9-14-12-10-15-14------------------------------------|
C|---7h8-10-12-----------------------------------------------------------|
G|-----------------------------------------------------------------------|
C|-----------------------------------------------------------------------|
Whole Riff 4x D|---------------------------------------------------------|
A|-----------------------------------------------------------------------|
F|--12-10-12/19-17-15-17-19-20-19h20p19-19-17-15-17-19-17-19-20-22-(2x)--|
C|-----------------------------------------------------------------------|
G|-----------------------------------------------------------------------|
C|-----------------------------------------------------------------------|

D|-----------------------------------------------------------------------------|
A|-----------------------------------------------------------------------------|
F|-----------------------------------------------------------------------------|
C|----------12-10-8-10-8-7-8-7-------------------------------------------------|
G|---0-8-10--------------------10-8--------------------------------------------|
C|-----------------------------------------------------------------------------|

D|-----------------------------------------------------------------------------|
A|-----------------------------------------------------------------------------|
F|-------------------------10-12-----------------------------------------------|
C|----------12-10-8-10-8-7---------(4x)----------------------------------------|
G|---0-8-10--------------------------------------------------------------------|
C|-----------------------------------------------------------------------------|

D|---------------------------------------------------------------------------|
A|---------------------------------------------------------------------------|
F|----------12-10-8-10-8-7-8-7-----------------------------------------------|
C|---0-8-10-------------------10-8-------------------------------------------|
G|---------------------------------------------------------------------------|
C|---------------------------------------------------------------------------|

D|---------------------------------------------------------------------------|
A|------------------------10-11----------------------------------------------|
F|----------12-10-8-10-8-7---------------------------------------------------|
C|---0-8-10----------------------(4x)----------------------------------------|
G|---------------------------------------------------------------------------|
C|---------------------------------------------------------------------------|

I haven't figured out the solo yet.

| /  slide up
| \  slide down
| h  hammer-on
| p  pull-off
| ~  vibrato
| +  harmonic
| x  Mute note
===============================================================================





Comments


Popular Light This City tabs & chords
Beginning With Release Tabs
Exile Intro Tabs
Fear Of Heights Tabs
Fear Of Heights 1 Tabs
Guardian In A Passerby Tabs
Remains Of The Gods Intro Tabs
Sand And Snow Tabs
Stormchaser Tabs
The Eagle Intro Tabs
Wake Me At Sunset Tabs


Song lyrics



↑ Back to top | Tablatures and chords are parodies/interpretations of the original songs. You may use it for private study, scholarship, research or language learning purposes only
© 2014 AZChords.com Contact us | Privacy policy | DMCA | Add/correct tabs | Request tabs | Top 50 tabs