» » »

Lightspeed Champion, No Suprise Chords (ver.1)

Artists:  A B C D E F G H I J K L M N O P Q R S T U V W X Y Z # 

No Suprise Chords (ver.1)

Lightspeed Champion Tabs
 Rating:
4.2/5 (5 votes)
No Suprise lessons Tabs too difficult? Try these video lessons and learn fast
1
                Heres Lightspeed Champion's "No Suprise", from Falling of the Lavender Bridge.
It's in standard tuning. I've only put the basic chords, although in the actually song 
a lot of decoration and what not.

 -----------------------------------------------------------------------------

G     D         Bm
 Keep the lights on

G   D       Bm
 Outside my window, comforts trying to sneak in.

G     D      Bm
 Knee deep in corn, dreaming of falling asleep next to

G  D  Bm

youuuuu.

G  D  Bm

youuuuu.

G   D         Bm
 Sunshine and holes

G      D       Bm
 in my plan to settle down and marry,

G      D         Bm
 We're all still young
G    D          Bm
 But don't you want somebody to

G D Bm
holddddd?

G D Bm
holddddd?


Em   C          G
 Headaches and sweat, (feels like i'm falling out my skin,)

Em  C     G
 we do it to ourselves, (but I promise not again.)


Em    C    G
 Although I hear it summon

Em  C         G
a swing and miss.

C        G           Em                      G
 In your head did you work out the route to conquer all of your fears.

C          G               Em                     G
Then what's left, when the water is dry and your hands won't grip anymore.


( C   G   Em   G
  C   G   Em   G )


Em    C          G
 Headaches and sweat, (feels like i'm falling out my skin,)

Em    C    G
 we do it to ourselves, (I promise not again.)

Em    C    G                Em   C         G
 Although I hear it summon.. a swing and miss.


C        G           Em                      G
 In your head did you work out the route to conquer all of your fears.

C          G               Em                     G
Then what's left, when the water is dry and your hands won't grip anymore.

C          G            Em     G
The more I hear and the more I hate.

C      G            Em                  G
Strike down all the fences guarding the one thing you had left.

Little soloey bit, wasn't sure; I normally improvise this kind of thing but yeh!


Guitar one:
    C                 G                   E                   
 G
e|----------------|--------------------|-------------------|-------------------|
B|----------------|--------------------|-------------------|-------------------|
G|-----0----2p0---|------0-----2p0-----|-----0------2p0----|-------0---2p0-----|
D|--2----2------0-|--2------2-------0--|--2-----2--------0-|--2------2-------0-|
A|--3-------------|--------------------|-------------------|-------------------|
E|----------------|--3-3---------------|--0----------------|--3-3--------------|

Guitar two: (on the second time.)


                C       G       E       G
e|----------|----------------------------------|
B|----------|---3-------0------/8---7---3------|
G|-----0----|---------------0------------------|
D|-0h2---2--|----------------------------------|
A|----------|----------------------------------|
E|----------|----------------------------------|


    C     G            E      G
The more I hear and the more I hate.

    C     G            E      G
The more I hear and the more I hate.

    C     G            E      G
The more I hear and the more I hate.

    C     G            E      G
The more I hear and the more I hate.

    C     G            E      G
The more I hear and the more I hate.

etc.


I got the lyrics from like, the only site I could find em. Tried to clean em up a bit 
still might be a bit sketchy.

Thanks.
            
Submit corrections

comments powered by Disqus
↑ Back to top | Lightspeed Champion Chords for No Suprise. Lyrics for acoustic guitar and electric guitar. 1 Tablatures and chords are parodies/interpretations of the original songs. You may use it for private study, scholarship, research or language learning purposes only