» » »

Marlene Tabs (ver.1)

Artists:  A B C D E F G H I J K L M N O P Q R S T U V W X Y Z # 

Marlene Tabs (ver.1)

Lightspeed Champion
Rating:
0/5 (0 votes)

Hard to play? Try these video lessons and learn fast.
                having tagged the majority of lightspeed stuff im back for another pop
the other tabs are just chords so i'll do the guitar parts


intro:
e|------------------------------------------|
B|------------------------------------------|
G|------------------------------------------|
D|------------------------------------------|
A|--7-----7-----7-----7---------------------|
E|-0-0---0-0---0-0---0-0--------------------|

violin part:
e|--------12-10---------------------12----|
B|-10b12--------12-10----------10-12------|
G|--------------------9---9-12------------|
D|----------------------------------------|
A|----------------------------------------|
E|----------------------------------------|


verse:
e|------------------------------------------|
B|------------------------------------------|
G|------------------------------------------|
D|------------------------------------------|
A|---------7----7---7---------7----7---7----|
E|-3-0-3--0-0--8-8-0-0-3-0-3-0-0--8-8-0-0---|

lead:
e|-----------------7---------------------------/12----------12--------|
B|-------7b8-7-5----8---------------8---10--------12------12----------|
G|-0-4-7---------7---9-11-9-4-7-4----9----9---------12--12------------|
D|--------------------------------10--10---10---------14--------------|
A|--------------------------------------------------------------------|
E|--------------------------------------------------------------------|

G                  Em
Night time running in and out of cars
   Am                                          D
im shredding all my nerves, i wont make a move first.....Etc

Em                         Am                                 D
im ready to give up on you now, im waiting till the suns gone down
                                G                              Em
im waiting for a strand of your golden locks to sow my stomach shut

on the G the lead guitar picks
e|-----10--------10---------7--------------------|
B|-12----12--12----12------8---------------------|
G|---12--------11---------9----------------------|
D|-----------------------------------------------|
A|-----------------------------------------------|

                                Am                                      C
and every body knows you want a baby, and god knows everybody wants one too
                           D
latin promises always keep breaking, now i dont know what to do.

e|-12-12-12-12-12p10---------12p10--------------------------------------------|
B|-------------------12p10-12------12p10-12\----------------------------------|
G|-------------------------------------------2b3-2-2p0--------2p0-------2b3b2-|
D|----------------------------------------------------2p0-2p0----2p0----------|
A|------------------------------------------------------------------2p0-------|
E|---------------------------------------------------------------------0------|

e|-5---------12-12-12-12/15-15p12h15p12h15p12-17b18-17-15-|
B|-5------------------------------------------------------|
G|-5------------------------------------------------------|
D|-5------------------------------------------------------|
A|--------------------------------------------------------|
E|--------------------------------------------------------|
   ^
lay your fingers
lightly across the strings
and twat them when heavily
distorted like you would
for a harmonic

the solos a bit iffy sorry im not much of a rock guitarist these days

thats pretty much all the guitar parts sorted for this then
gooday
            
Hard to play? Try these video lessons and learn fast. | Correct




comments powered by Disqus
↑ Back to top | Tablatures and chords are parodies/interpretations of the original songs. You may use it for private study, scholarship, research or language learning purposes only