» » »

Lightspeed Champion, I Could Have Done This Myself Tabs (ver.1)

Artists:  A B C D E F G H I J K L M N O P Q R S T U V W X Y Z # 

I Could Have Done This Myself Tabs (ver.1)

Lightspeed Champion Tabs
Rating:
5/5 (1 vote)
I Could Have Done This Myself lessons Tabs too difficult? Try these video lessons and learn fast
                ------------------------------------------------------------------------------
-------------------------------------------------------------------------------

Intro riff:

e|----------------------------------|
B|----------------------------------|
G|-2/11--11\9--11\6---7--6--4--2----| x2
D|----------------------------------|
A|----------------------------------|
E|----------------------------------|

Verse (strummed)

  Bm         Em        A        D     D/Db
e|-2---------0---------0--------2-----2-----|
B|-3---------0---------2--------3-----3-----|
G|-4---------0---------2--------2-----2-----| x4
D|-4---------2---------2--------0-----0-----|
A|-2---------2---------0--------------4-----|
E|-----------0------------------------------|

       ‘we do, we do’
    G           Em          Bm        Gb
e|---------------------------2--------2-----------|
B|-12-----------8------------3--------2-----------|
G|-12-----------9------------4--------3-----------| x4
D|-12-----------9------------4--------4-----------|
A|-10-----------7------------2--------4-----------|
E|------------------------------------2-----------|

      
   D (strummed fast) not sure about this chord
e|-2------------------------|
B|-3------------------------|
G|-2------------------------|
D|-0------------------------|
A|--------------------------|
E|--------------------------|

     (2:04)
   G      Em      Bm     D
e|-3-------0------2------2----|
B|-3-------0------3------3----|
G|-0-------0------4------2----| Repeated till end (this is played over D)
D|-0-------2------4------0----|
A|-2-------2------2-----------|
E|-3-------0------------------|

End on Em.


| /  slide up
| \  slide down
| h  hammer-on
| p  pull-off
| ~  vibrato
| +  harmonic
| x  Mute note

Not perfect, welcome to corrections.  Cheers.
            
Submit corrections

comments powered by Disqus
↑ Back to top | Lightspeed Champion Tabs for I Could Have Done This Myself. Lyrics for acoustic guitar and electric guitar. Tablatures and chords are parodies/interpretations of the original songs. You may use it for private study, scholarship, research or language learning purposes only