» » »

Lightspeed Champion, Everyone I Know Is Listening To Crunk Tabs (ver.1)

Artists:  A B C D E F G H I J K L M N O P Q R S T U V W X Y Z # 

Everyone I Know Is Listening To Crunk Tabs (ver.1)

Lightspeed Champion Tabs
 Rating:
4.2/5 (5 votes)
Everyone I Know Is Listening To Crunk lessons Tabs too difficult? Try these video lessons and learn fast
                This is my first tab so its not great and just looks complex so sorry for that, 
but i think it sound ok
it together from what i could see
enjoy

Intro
E 	|---------------|
B 	|---------------|
G	|-------4-------|
D	|-------6-------|	x4
A	|-------7-------|
E	|-------0-------|

Verse part 1
E 	|------5----|--------------|------------5----|-------7------------|
B 	|------5----|--------------|------------5----|-------7------------|
G	|-4----6----|-----4--------|---4--------6----|-------8------------|
D	|-6----7----|-----6--------|---6--------7----|-------9-------10---|
A        |-7----7----|-----7--------|---7--------7----|-------9--------9---|
E	|-0----5----|-----0--------|---0--------5----|-------7--------8---|
	Kiss me and comfort me my sweet
					Take me out to dinner
					               Like you did
								 Last week

Verse part 2
E	|-------4-------4---|-----4-------4----|-------5-------|-----7-----|
B	|-------5-------4---|-----5-------4----|-------5-------|-----7-----|
G	|-------6-------5---|-----6-------5----|-------6-------|-----8-----|
D	|-------6-------6---|-----6-------6----|-------7-------|-----9-----|
A	|-------4-------6---|-----4-------6-----|------7-------|-----9-----|
E	|---------------4---|-------------4----|-------5-------|-----7-----|
           won’t wake up beside you
                              when I’m out I won’t hide from you
     		                                   Like a have done before

Pre Chorus
E     |-------4--------|-------4------------|
B     |-------4--------|-------5------------|
G     |-------5--------|-------6------------|
D     |-------6--------|-------6------------|
A     |-------6--------|-------4------------|
E     |-------4--------|--------------------|
	Mixed feeling I get in my head
                          Hot woman you’re not in my bed
	Oh please forget what I said

Chorus
E 	|------4--------|-------0--------|--------0-------|------0---------|
B 	|------5--------|-------0--------|--------2-------|------0---------|
G	|------6--------|-------1--------|--------2-------|------1---------|
D	|------6--------|-------2--------|--------2-------|------2---------|
A	|------4--------|-------2--------|--------0-------|------2---------|
E	|---------------|-------0--------|----------------|------0---------|
	Sometimes	In the cold night
                                          My Phone Rings
                                                         And its not you

Verse 3
E 	|---0-----0---|------0--------|-----0-------0---|------2----------|
B 	|---0-----2---|------0--------|-----0-------2---|------4----------|
G	|---1-----2---|------1--------|-----1-------2---|------4-------5--|
D	|---2-----2---|------2--------|-----2-------2---|------4-------4--|
A	|---2-----0---|------2--------|-----2-------0---|------2-------3--|
E	|---0---------|------0--------|-----0-----------|-----------------|
	Kiss me and comfort
	Me		    my sweet   Come over
                                                 I just got
                                                              The new OC


Song Structure

Intro
Verse part 1
Verse part 2
Verse part 1
Verse part 2
Pre Chorus
Chorus
Verse 3
Verse part 2
Pre Chorus
Chorus x 3

p.s. i didnt realise how hard they are to write!
            
Submit corrections

comments powered by Disqus
↑ Back to top | Lightspeed Champion Tabs for Everyone I Know Is Listening To Crunk. Lyrics for acoustic guitar and electric guitar. Tablatures and chords are parodies/interpretations of the original songs. You may use it for private study, scholarship, research or language learning purposes only