» » »

Dry Lips Tabs (ver.2)

Artists:  A B C D E F G H I J K L M N O P Q R S T U V W X Y Z # 

Dry Lips Tabs (ver.2)

Lightspeed Champion
Rating:
0/5 (0 votes)

Hard to play? Try these video lessons and learn fast.
                (Intro)
sorry for not completing the song, but this riff is repeaed throughout. i was a little 
for time, i'll finish it at a later date.

E|-----------------------------------------------------------|
B|-----------------------------------------------------------|
G|-----------------------------------------------------------|
D|---2-2-2-2-2-2-3-3-5-5-5-5-5-5-7-7-------------------------|
A|--3-3-3-3-3-3-5-5-7-7-7-7-7-7-8-8--------------------------|
E|-----------------------------------------------------------|

E|-----------------------------------------------------------|
B|-----------------------------------------------------------|
G|-----------------------------------------------------------|
D|-----------------------------------------------------------|
A|---7-7-7-7-7-7-5-5-7-7-7-7-7-7-7-7-------------------------|
E|--8-8-8-8-8-8-7-7-8-8-8-8-8-8-8-8--------------------------|
            
Hard to play? Try these video lessons and learn fast. | Correct




comments powered by Disqus
↑ Back to top | Tablatures and chords are parodies/interpretations of the original songs. You may use it for private study, scholarship, research or language learning purposes only