» » »

Devil Tricks For A Bitch Tabs (ver.1)

Artists:  A B C D E F G H I J K L M N O P Q R S T U V W X Y Z # 

Devil Tricks For A Bitch Tabs (ver.1)

Lightspeed Champion
Rating:
5/5 (2 votes)

Hard to play? Try these video lessons and learn fast.
                (Intro)
bored so im gonna figure this song out and arrange it on guitar for you lovely people

palm muted ...
e|-------------------------------------------------|
B|-------3------3----------------------------------|
G|-------2------2--------0-------0-0-0-------------|
D|-0-0-0--0-0-0----------0-------0-0-0-------------|
A|-------------------------------------------------|
E|-----------------3-3-3---3-3-3-------------------|


e|----------------------------------------------|
B|-------3-------3------------------------------|
G|-------2-------2--------2------2-2-2----------|
D|-0-0-0---0-0-0----------2------2-2-2----------|
A|------------------0-0-0--0-0-0----------------|
E|----------------------------------------------|

e|--------------------------------------------------|
B|-------3------3-----------------------------------|
G|-------2------2--------0-------0-0-0--------------|
D|-0-0-0--0-0-0----------0-------0-0-0--------------|
A|--------------------------------------------------|
E|-----------------3-3-3---3-3-3--------------------|


e|---------------------------------------------|
B|-------3--------------------3-------3-3-3----|
G|-------2-------2-2-2--------2-------2-2-2----|
D|-0-0-0---------2-2-2--0-0-0---0-0-0----------|
A|---------0-0-0-------------------------------|
E|---------------------------------------------|
            
Hard to play? Try these video lessons and learn fast. | Correct




comments powered by Disqus
↑ Back to top | Tablatures and chords are parodies/interpretations of the original songs. You may use it for private study, scholarship, research or language learning purposes only