» » »

Lightning Bolt, Saint Jacques Bass tabs (ver.1)

Artists:  A B C D E F G H I J K L M N O P Q R S T U V W X Y Z # 

Saint Jacques Bass tabs (ver.1)

Lightning Bolt Tabs
Rating:
0/5 (0 votes)
Hard to play? Try these video lessons and learn fast.
                ----------------------------------------------------------------------------
                   Lightning Bolt - SAINT JACQUES
----------------------------------------------------------------------------

Riff1:

  A ------------------------------------------------------------------|
  D ---17--17--17--17--17--17--17--17--17--17--17--17--17--17--17--17-|
  G -0---12--12--12--12--12--12--12--12--12--12--12--12--12--12--12---|  Repeat 3 times
  C ------------------------------------------------------------------|

  A ------------------------------------------------------------------|
  D ---17--17--17--17--17--17--17--17--17--17--17--17--17--17--17--17-|
  G -0---12--12--12---0--12--12--12--0---12--0---12--0---12--12--0----|
  C ------------------------------------------------------------------|

  A ------------------------------------------------------------------|
  D ------------------------------------------------------------------|
  G ------------------------------------------------------------------|
  C -0-0-0-0-0-0-0-0-0-0-0-0-0-0-0-0-0-0-0-0-0-0-0-0-0-0-0-0-0-0-0-0--|

  The song continues playing the Bass C note until about 1'27 into the song,
  with variations in timing and the odd break.

Riff2:

  A -10-----------12-----------14-----------15--------------|
  D --------------------------------------------------------|
  G --------------------------------------------------------|
  C -0---0--0-0-0-0---0--0-0-0-0---0--0-0-0-0---0--0-0-0-0--|

  A --------------------------------------------------------|
  D -14-----------12-----------10-----------10--------------|
  G --------------------------------------------------------|
  C -0---0--0-0-0-0---0--0-0-0-0---0--0-0-0-0---0--0-0-0-0--|

Riff3:

  A -15-----17-----19-----15-17-19----------------------------|
  D -----------------------------------8--8--8--8--8--8--8--8-|
  G ----------------------------------------------------------|
  C ----0-0----0-0----0-0---0--0--0--10-10-10-10-10-10-10-10--|

  It continues on the last two notes for a bit with a few of random widdles.
  You should be able to figure it out until about 3'19 into the song,
  the riffs are only small variations on the above.

Riff4:

  A -15-10-12-14-15-10-12-14-15-10-12-14-15-14-12-10--|
  D --------------------------------------------------|
  G --------------------------------------------------|
  C ---0--0--0--0--0--0--0--0--0--0--0--0--0--0--0--0-|

  A -12-12-12-12-12-12-12-12-14-14-14-14-14-14-14-14--|
  D --------------------------------------------------|
  G --------------------------------------------------|
  C ---0--0--0--0--0--0--0--0--0--0--0--0--0--0--0--0-|

  A -15-15-15-15-15-15-15-15-15-15-15-15-15-15-15-15--|
  D --------------------------------------------------|
  G --------------------------------------------------|
  C ---0--0--0--0--0--0--0--0--0--0--0--0--0--0--0--0-|

  A -15-17-19-15-15-17-19-15-15-17-19-17-15-17-14-----|
  D ----------------------------------------------17--|
  G --------------------------------------------------|
  C ---0--0--0--0--0--0--0--0--0--0--0--0--0--0--0--0-|

  A -15-17-19-15-15-17-19-15-15-17-19-17-15-17-14-----|
  D ----------------------------------------------17--|
  G --------------------------------------------------|
  C ---0--0--0--0--0--0--0--0--0--0--0--0--0--0--0--0-|

  A -15-15-15-15-19-15-19-15-19-15-19-15-19-15-19-19---15-|
  D ------------------------------------------------------|
  G ------------------------------------------------------|
  C ---0--0--0--0--0--0--0--0--0--0--0--0--0--0--0--0--0--|

  Let the last note ring.
            

comments powered by Disqus
↑ Back to top | Lightning Bolt Bass for Saint Jacques. Lyrics for acoustic guitar and electric guitar. Tablatures and chords are parodies/interpretations of the original songs. You may use it for private study, scholarship, research or language learning purposes only