» » »

Dracula Mountain Bass tabs (ver.1)

Artists:  A B C D E F G H I J K L M N O P Q R S T U V W X Y Z # 

Dracula Mountain Bass tabs (ver.1)

Lightning Bolt
Rating:
5/5 (1 vote)

Hard to play? Try these video lessons and learn fast.
                ---------------------------------------------------------------------------
                        Lightning Bolt - DRACULA MOUNTAIN
---------------------------------------------------------------------------

Riff1: This gets repeated somewhat

  A -------------------------------------------|
  D -------------------------------------------|
  G -----------4-4-5-5-6-------------4-4-5-5---|
  C -6---6-6-6-------------6---6-6-6---------4-|

Riff2: The timing on this is a bit wierd, I've tabbed it out here without
       using a whammy pedal, If you have a whammy pedal use it jump to an octave
       higher rather than using the 4th fret of the D-String

  A -------------------------------------------|
  D -4-----------------------4-----------------|
  G -----------4-4-5-5-6-------------4-4-5-5---|
  C ---6-6-6-6-------------6---6-6-6---------4-|

  A -------------------------------------------|
  D -------4-4-------------------4-4-----------|
  G -----------4-4-5-5-6-------------4-4-5-5---|
  C -6-6-------------------6-6---------------4-|

Riff3: Samething, a little bit higher

  A -------------------------------------------|
  D -------------------------------------------|
  G -----------6-6-7-7-8-------------6-6-7-7---|
  C -8---8-8-8-------------8---8-8-8---------6-|

Riff4: The timing on this is a bit wierd, I've tabbed it out here without
       using a whammy pedal, If you have a whammy pedal use it jump an octave
       higher rather than using the 4th fret of the D-String

  A -------------------------------------------|
  D -6-----------------------6-----------------|
  G -----------6-6-7-7-8-------------6-6-7-7---|
  C ---8-8-8-8-------------8---8-8-8---------6-|

  A -------------------------------------------|
  D -------6-6-------------------6-6-----------|
  G -----------6-6-7-7-8-------------6-6-7-7---|
  C -8-8-------------------8-8---------------6-|

  A -------------------------------------------|
  D -6-----------------------6-----------------|
  G -----------6-6-7-7-8-------------6-6-7-7---|
  C ---8-8-8-8-------------8---8-8-8---------6-|

  A -------------------------------------------|
  D -------6-6-------------------6-6-----------|
  G -----------6-6-7-7-8-------------6-6-7-7---|
  C -8-8-------------------8-8---------------4-|


  Alternates between This riff and Riff2

Riff5:

  A ----------------------------------------------------|
  D ----------------------------------------------------|
  G ----------------------------------------------------|
  C -6--6-6-6--6-6-6--6-6-6--6-6-6--6-6-6--6-6-6--6-6-6-|

  A ----------------------------------------------------|
  D ----------------------------------------------------|
  G ----------------------------------------------------|
  C -6-6-6--6-6-6--6-6-6--6-6-6--6-6-6--6-6-6--7777777--|

Riff6:

  A ----------------------------------------------------|
  D ---------------4------------------------------------|
  G ----------------------------------------------------|
  C -6--6-6-6--6-6----6-6-6--6-6-6--6-6-6--6-6-6--6-6-6-|

  A ----------------------------------------------------|
  D ----------------------------------------------------|
  G ----------------------------------------------------|
  C -6-6-6--6-6-6--6-6-6--6-6-6--6-6-6--6-6-6--7777777--|


Riff7:

  A ----------------------------------------|
  D ----------------------------------------|
  G ----------------------------------------|
  C -6--6-6-6--7777777---6--6-6-6--7777777--|

  A ----------------------|
  D ----------------------|
  G ----------------------|
  C -6--7-7-7---6--7-7-7--|

Riff8:

  A -------------------10-------------------------|
  D -11-11-11-13-14-14----11-11-11-13-14-14-14-14-|
  G ----------------------------------------------|
  C ----------------------------------------------|

  A -------------------10-------------------------|
  D -11-11-11-13-14-14----11-11-11-14-12-12-12-12-|
  G ----------------------------------------------|
  C ----------------------------------------------|

  A -------------------10-------------11-11-11-11-|
  D -11-11-11-13-14-14----11-11-11-14-------------|
  G ----------------------------------------------|
  C ----------------------------------------------|

  A -------------------11-11----------------------|
  D -11-11-11-13-14-14-------14-13-12-11----------|
  G ----------------------------------------------|
  C ----------------------------------------------|

Riff9:

  A --------------------------------|
  D -------------5------------------|
  G -6-6-6-8-9-9----6-6-6-8-9-9-9-9-|
  C --------------------------------|

  A --------------------------------|
  D -------------5------------------|
  G -6-6-6-8-9-9----6-6-6-9-7-7-7-7-|
  C --------------------------------|

  A --------------------------------|
  D -------------5----------6-6-6-6-|
  G -6-6-6-8-9-9----6-6-6-9---------|
  C --------------------------------|

  A --------------------------------|
  D -------------6-6----------------|
  G -6-6-6-8-9-9-----9-8-7-6--------|
  C --------------------------------|
            
Hard to play? Try these video lessons and learn fast. | Correct




comments powered by Disqus
↑ Back to top | Tablatures and chords are parodies/interpretations of the original songs. You may use it for private study, scholarship, research or language learning purposes only