» » »

Lightning Bolt, Crown Of Storms Bass tabs (ver.1)

Artists:  A B C D E F G H I J K L M N O P Q R S T U V W X Y Z # 

Crown Of Storms Bass tabs (ver.1)

Lightning Bolt Tabs
 Rating:
4/5 (4 votes)
Crown Of Storms lessons Tabs too difficult? Try these video lessons and learn fast
                ----------------------------------------------------------------------------
                           Lightning Bolt - CROWN OF STORMS
----------------------------------------------------------------------------

Riff1: Lots of tapping! The note on the 10th fret is not actually played,
       it's just sounded using pulloffs from the right hand when tapping.

      T P  H   T P  H   T P  H   T P  H
  A --17-10-15-19-10-15-17-10-15-19-10-15-|
  D --------------------------------------|  ...  Repeat lots  ...
  G --------------------------------------|
  C --------------------------------------|


Riff2: This bit is the hardest bit to get right, concentrate on the rhythm
       and hopefully it'll fall into place....

       T P  H   T    T P  H   T    T P  H   T    T P  H   T
  A ---19-10-15-19---19-10-15-19---19-10-15-19---19-10-15-19--|
  D ----------------------------------------------------------|
  G -0-------------0-------------0-------------0--------------|
  C ----------------------------------------------------------|

       T P  H   T    T P  H   T    T P  H   T    T P  H   T
  A ---17-10-14-17---17-10-14-17---17-10-14-17---17-10-14-17--|
  D ----------------------------------------------------------|
  G -0-------------0-------------0-------------0--------------|
  C ----------------------------------------------------------|

       T P  H   T    T P  H   T    T P  H   T    T P  H   T
  A ---19-10-15-19---19-10-15-19---19-10-15-19---19-10-15-19--|
  D ----------------------------------------------------------|
  G -0-------------0-------------0-------------0--------------|
  C ----------------------------------------------------------|

       T P  H   T    T P  H   T    T P  H   T    T P  H   T
  A ---17-10-14-17---17-10-14-17---17-10-14-17---17-10-14-17--|
  D ----------------------------------------------------------|
  G -0-------------0-------------0-------------0--------------|
  C ----------------------------------------------------------|

       T P  H   T    T P  H   T    T P  H   T    T P  H   T
  A ---14-10-12-14---14-10-12-14---14-10-12-14---14-10-12-14--|
  D ----------------------------------------------------------|
  G -0-------------0-------------0-------------0--------------|
  C ----------------------------------------------------------|

       T P  H   T    T P  H   T    T P  H   T    T P  H   T
  A ---17-10-14-17---17-10-14-17---17-10-14-17---17-10-14-17--|
  D ----------------------------------------------------------|
  G -0-------------0-------------0-------------0--------------|
  C ----------------------------------------------------------|

       T P  H   T    T P  H   T    T P  H   T    T P  H   T
  A ---14-10-12-14---14-10-12-14---14-10-12-14---14-10-12-14--|
  D ----------------------------------------------------------|
  G -0-------------0-------------0-------------0--------------|
  C ----------------------------------------------------------|

       T P  H   T    T P  H   T    T P  H   T    T P  H   T
  A ---12-10-12-12---12-10-12-12---12-10-12-12---12-10-12-12--|
  D ----------------------------------------------------------|
  G -0-------------0-------------0-------------0--------------|
  C ----------------------------------------------------------|

Riff3: The easy one! Used for a good part of the song.

  A ----------------------------------------------------------|
  D ----------------------------------------------------------|
  G -0-------------0-------------0-------------0--------------|
  C ----------------------------------------------------------|

Riff4: The following riffs are played in no particular order.
       I'm not entirely sure whether the D string is played at
       all here, it would probably be OK with just the A and G
       strings....

Riff 4.1a:

  A -------14------------14-------------14------------14------|
  D -------17------------17-------------17------------17------|
  G -0-------------0-------------0-------------0--------------|
  C ----------------------------------------------------------|

  A -------15------------15-------------15------------15------|
  D -------17------------17-------------17------------17------|
  G -0-------------0-------------0-------------0--------------|
  C ----------------------------------------------------------|

  A -------17------------17-------------17------------17------|
  D -------17------------17-------------17------------17------|
  G -0-------------0-------------0-------------0--------------|
  C ----------------------------------------------------------|

  A -------17------------17-------------17------------17------|
  D -------17------------17-------------17------------17------|
  G -0-------------0-------------0-------------0--------------|
  C ----------------------------------------------------------|

Riff 4.1b:

  A -------14------------14-------------14------------14------|
  D -------17------------17-------------17------------17------|
  G -0-------------0-------------0-------------0--------------|
  C ----------------------------------------------------------|

  A -------15------------15-------------15------------15------|
  D -------17------------17-------------17------------17------|
  G -0-------------0-------------0-------------0--------------|
  C ----------------------------------------------------------|

  A -------19------------19-------------19------------19------|
  D -------17------------17-------------17------------17------|
  G -0-------------0-------------0-------------0--------------|
  C ----------------------------------------------------------|

  A -------17------------17-------------17------------17------|
  D -------17------------17-------------17------------17------|
  G -0-------------0-------------0-------------0--------------|
  C ----------------------------------------------------------|

Riff 4.1c:

  A -------14------------14-------------14------------14------|
  D -------17------------17-------------17------------17------|
  G -0-------------0-------------0-------------0--------------|
  C ----------------------------------------------------------|

  A -------15------------15-------------15------------15------|
  D -------17------------17-------------17------------17------|
  G -0-------------0-------------0-------------0--------------|
  C ----------------------------------------------------------|

  A -------10------------10-------------10------------10------|
  D -------16------------16-------------16------------16------|
  G -0-------------0-------------0-------------0--------------|
  C ----------------------------------------------------------|

  A -------15------------15-------------15------------15------|
  D -------17------------17-------------17------------17------|
  G -0-------------0-------------0-------------0--------------|
  C ----------------------------------------------------------|

Riff 5:

  A ------14----17----------------|
  D -17---------------------------|
  G -0----0-----0----0--0 0 0 0 0-|
  C ------------------------------|

  A ------14----------------------|
  D -17---------17----------------|
  G -0----0-----0----0--0 0 0 0 0-|
  C ------------------------------|

Ending :
                let ring.....
  A ------14----17----------------|
  D -17---------------------------|
  G -0----0-----0-----------------|
  C ------------------------------|

  A 'T' above the note indicates that it is tapped using the right
  hand. 'H' indicates a hammer on, 'P' indicates a pulloff
  The most difficult thing about this piece is getting the rhythm right,
  It may take a bit of practice!
            
Submit corrections

comments powered by Disqus
↑ Back to top | Lightning Bolt Bass for Crown Of Storms. Lyrics for acoustic guitar and electric guitar. Tablatures and chords are parodies/interpretations of the original songs. You may use it for private study, scholarship, research or language learning purposes only