» » »

Conan Bass tabs (ver.1)

Artists:  A B C D E F G H I J K L M N O P Q R S T U V W X Y Z # 

Conan Bass tabs (ver.1)

Lightning Bolt
Rating:
0/5 (0 votes)

Hard to play? Try these video lessons and learn fast.
                 ---------------------------------------------------------------------------
		                             Lightning Bolt - CONAN
 ---------------------------------------------------------------------------

Riff1:

  A -------------------------------------|
  D -------------------------------------|
  G -------------------------------------|
  C -0-0-0-0-0-0-0-0-0-0-0-0-0-0-0-0-0-0-|

  well, the song starts with a single note plucked for ages....

Riff2:

  A ------------------------------------------|
  D ------------------------------------------|
  G ----------------------11------------------|
  C -12----15-12-12-15----------15-12-12-15---|

Riff3:

  A ----------------------------------------------------------|
  D ----------------------------------------------------------|
  G ----------------------------------------------------------|
  C -15 / 17-17-17-17-17-17-17-17-18-18-18-18-18-18-15-15-15--|

Riff4:

  A -------------------------------------------------|
  D -------------------------16----------------------|
  G -------------------------------------------------|
  C -18-18-18-18-18-18-18-18----18-18-18-18-18-18-18-|

  A -------------------------------------------------|
  D -16----------------------16----------------------|
  G -------------------------------------------------|
  C ----18-18-18-18-18-18-18----18-18-18-18-18-18-18-|

  A -------------------------------------------------|
  D -16----------16----------16----------16----------|
  G -------------------------------------------------|
  C ----18-18-18----18-18-18----18-18-18----18-18-18-|
            
Hard to play? Try these video lessons and learn fast. | Correct




comments powered by Disqus
↑ Back to top | Tablatures and chords are parodies/interpretations of the original songs. You may use it for private study, scholarship, research or language learning purposes only