» » »

Captain Caveman Bass tabs (ver.1)

Artists:  A B C D E F G H I J K L M N O P Q R S T U V W X Y Z # 

Captain Caveman Bass tabs (ver.1)

Lightning Bolt
Rating:
5/5 (1 vote)

Hard to play? Try these video lessons and learn fast.
                ===============================================================================




Tuning: tabbed in standard (yep i'm aware this is not the tuning its officially
played in but Cello tuning just ent for me)

The multiple slides I've put after some notes indicates when you just need some
chaotic sliding down; you've heard the track, you know what I mean. 
Effects: As much distortion as you can possibly manage.



(0.00)                 (0.09)
G|----------------|    |----------------------------------|
D|----------------|    |-8~~~~~~~~~~~~~~~~~~~~~~~~~~~~\\\-|
A|-----6-7-6------| x4 |----------------------------------|
E|-6-9--------6---|    |----------------------------------|

(0.19)
G|-----------------------------------------|
D|-----------------------------------------|
A|-----------6666-8888-9999-8888-6666------| x5
E|-6666-9999--------------------------9999-|

(0. 43)
G|-11111111-10101010-8888----------9999-8888---------------|
D|------------------------11111111-----------11111111-8888-|
A|---------------------------------------------------------|
E|---------------------------------------------------------|

G|-11111111-10101010-8888----------9999-8888-----------|
D|------------------------11111111-----------9999-8888-|
A|-----------------------------------------------------|
E|-----------------------------------------------------|

(0.52)
G|---------------------------------|
D|----------------8~~~~~~~~~~~~\\\-|
A|-----6-7-------------------------|
E|-6-9--------4-6------------------|

(1.00)
G|-----------------------------------------|
D|-----------------------------------------|
A|-----------6666-8888-9999-8888-6666------| x5
E|-6666-9999--------------------------9999-|

(1.24)
G|-11111111-10101010-8888----------9999-8888---------------|   |
D|------------------------11111111-----------11111111-8888-|   |
A|---------------------------------------------------------|   |
E|---------------------------------------------------------|   |
                                                               | x2
G|-11111111-10101010-8888----------9999-8888-----------|       |
D|------------------------11111111-----------9999-8888-|       |
A|-----------------------------------------------------|       |
E|-----------------------------------------------------|       |

(1.43)
G|---------------------------------------------6666666666666666666666666\\-------|
D|-------------------------------------------------------------------------------|
A|-----6-7-----------------------------------------------------------------16\\\-|
E|-6-9--------99999999999999999999999999999999-----------------------------------|

(1.54)
G|----------------|    
D|----------------|    
A|-----6-7-6------| x6 
E|-6-9--------6---|    

(2.03)
G|--------------13131313121212\-------------11111111101010\-|
D|----------------------------------------------------------|
A|-----6-7-6------------------------6-7-6-------------------|
E|-6-9--------6-----------------6-9-------6-----------------|

G|--------------6555655\-----------------------|
D|------------------------------------9999888\-|
A|------6-7-6-----------------6-7-6------------|
E|-6-9--------6----------6-9--------6----------|

G|--------------13131313121212\-------------11111111101010\-|
D|----------------------------------------------------------|
A|-----6-7-6------------------------6-7-6-------------------|
E|-6-9--------6-----------------6-9-------6-----------------|

G|--------------6666555\-----------------------|
D|------------------------------------9999888\-|
A|------6-7-6-----------------6-7-6------------|
E|-6-9--------6----------6-9--------6----------|

(2.21)
G|----------------|    
D|----------------|    
A|-----6-7-6------| x4 
E|-6-9--------6---|    

(2.26)
G|--------------13131313121212\-------------11111111101010\-|   |
D|----------------------------------------------------------|   |
A|-----6-7-6------------------------6-7-6-------------------|   | 
E|-6-9--------6-----------------6-9-------6-----------------|   |
                                                                | x2
G|--------------6666555\-----------------------|                |
D|------------------------------------9999888\-|                |
A|------6-7-6-----------------6-7-6------------|                |
E|-6-9--------6----------6-9--------6----------|                |


(2.44)
G|-------------------------------------------|   |
D|-------------------------------------------|   |
A|-111111111010101099998888------------------|   |
E|--------------------------9999888877776666-|   | 
                                                 | x2
G|----------------|                              |    
D|----------------|                              |   
A|-----6-7-6------| x4                           |
E|-6-9--------6---|                              |

(3.03)
G|-------------------------------------------|   
D|-------------------------------------------|   
A|-111111111010101099998888------------------| x3
E|--------------------------9999888877776666-|

G|--------------|    
D|--------------|    
A|-----6-7~-----|  
E|-6-9----------|    





| /  slide up
| \  slide down
| h  hammer-on
| p  pull-off
| ~  vibrato
| +  harmonic
| x  Mute note
===============================================================================
            
Hard to play? Try these video lessons and learn fast. | Correct




comments powered by Disqus
↑ Back to top | Tablatures and chords are parodies/interpretations of the original songs. You may use it for private study, scholarship, research or language learning purposes only