>
 >
Certe Notti 1

Certe Notti 1 Guitar Tabs

Ligabue - Certe Notti 1 chords, tabs, tablatures, lyrics

Guitar lessons | Add/correct | Request | Top 50 tabs Artists:  A B C D E F G H I J K L M N O P Q R S T U V W X Y Z 0-9

Certe Notti 1 Guitar Tabs – Ligabue

CD, Sheet music, Poster

Do you like Certe Notti 1? Share with your friends now
ChordsChords v2TabsTabs v2Ukulele
CERTE NOTTI

[Intro]

[Ritmo terzinato in 12/8]
[NOTA: La TAB dovrebbe essere corretta al 99%, tranne forse le
posizioni; nel video del Night Express infatti *Capitan* Fede
suonava l'intro cosi':
   MI                LA
e|----------------------------------------|
B|--5--------5----------------------------|
G|-----4--------4---------4---------4-----|
D|--------2--------2--1h2----2--1h2----2--|
A|----------------------------------------|
E|----------------------------------------|
io non ci riesco, comunque anche la mia versione dovrebbe suonare
bene.]
NOTA: per chi lo desiderasse io ho anche un file Guitar Pro della
canzone comprese alcune parti del basso.


     MI                LA                    MI                LA
e|--0--------0----------------------------|--0--------0----------------------------|
B|-----0--------0---------0---------0-----|-----0--------0---------0---------0-----|
G|----------------------------------------|----------------------------------------|
D|--------2--------2--1h2----2--1h2----2--|--------2--------2--1h2----2--1h2----2--|
A|----------------------------------------|----------------------------------------|
E|----------------------------------------|----------------------------------------|

                              Cer -te      Not- ti
  MI                LA                     SI       LA        MI
--0--------0----------------------------|--0------------------0--------0--------|
-----0--------0---------0---------0-----|-----0---------0--------0--------0-----|
----------------------------------------|---------------------------------------|
--------2--------2--1h2----2--1h2----2--|--------2--1h2----2--------2--------2--|
----------------------------------------|---------------------------------------|
----------------------------------------|---------------------------------------|

   DO#m                LA                  SI
----------------------0--------0--------|----------------------0--------0--------|
--4h5p0~----4h5p0~-------0--------0-----|------0---------0--------0--------0-----|
----------------------------------------|----------------------------------------|
----------------------------2--------2--|--1h2----2--1h2----2--------2--------2--|
----------------------------------------|----------------------------------------|
----------------------------------------|----------------------------------------|

  SOL#m             LA                   DO#m                LA
--------------------------------------|----------------------0--------0--------|
-----4-----7--5--4-----4-----7--5--4--|------0---------0--------0--------0-----|
--4-----4-----------4-----4-----------|----------------------------------------|
--------------------------------------|--1h2----2--1h2----2--------2--------2--|
--------------------------------------|----------------------------------------|
--------------------------------------|----------------------------------------|

  SOL#m             LA                   SI        LA       MI
--------------------0--------0--------|------------0----------------------------|
--5p4p0----5p4p0-------0--------0-----|------0--------0---------0---------0-----|
--------------------------------------|-----------------------------------------|
--------------------------2--------2--|--1h2----2--------2--1h2----2--1h2----2--|
--------------------------------------|-----------------------------------------|
--------------------------------------|-----------------------------------------|





  RE
--2--0-----2--0-----2--------2--------|--2--0-----2--0-----2--------2--------|
--3-----3--------3--3--3--------3-----|--3-----3--------3--3--3--------3-----|
--2-----------------2-----2--------2--|--2-----------------2-----2--------2--|
--------------------------------------|--------------------------------------|
--------------------------------------|--------------------------------------|
--------------------------------------|--------------------------------------|

[seconda strofa]
  MI           LA              SI     LA     MI
--0------------5------------|--7------5------0------------|
--0------------5------------|--7------5------0------------|
--1------------6------------|--8------6------1------------|
--2------------7------------|--9------7------2------------|
--2------------7------------|--9------7------2------------|
--0------------5------------|--7------5------0------------|

  DO#m                LA                   MI
----------------------0--------0--------|----------------------0--------0--------|
--4h5p0~----4h5p0~-------0--------0-----|------0---------0--------0--------0-----|
----------------------------------------|----------------------------------------|
----------------------------2--------2--|--1h2----2--1h2----2--------2--------2--|
----------------------------------------|----------------------------------------|
----------------------------------------|----------------------------------------|

  DO#m              LA                   DO#m                LA
--------------------------------------|----------------------0--------0--------|
-----4-----7--5--4-----4-----7--5--4--|------0---------0--------0--------0-----|
--4-----4-----------4-----4-----------|----------------------------------------|
--------------------------------------|--1h2----2--1h2----2--------2--------2--|
--------------------------------------|----------------------------------------|
--------------------------------------|----------------------------------------|

  DO#m              LA                   MI        LA       MI
--------------------0--------0--------|------------0----------------------------|
--5p4p0----5p4p0-------0--------0-----|------0--------0---------0---------0-----|
--------------------------------------|-----------------------------------------|
--------------------------2--------2--|--1h2----2--------2--1h2----2--1h2----2--|
--------------------------------------|-----------------------------------------|
--------------------------------------|-----------------------------------------|

  DO#m              SI                   LA                MI
--------------------------------------|--------------------------------------|
-----------5-----------------7--------|-----------5-----------------0--------|
--------6-----6-----------8-----8-----|--------6-----6-----------1-----1-----|
-----6-----------6-----9-----------9--|-----7-----------7-----2-----------2--|
--4-----------------9-----------------|--7-----------------2-----------------|
--------------------------------------|--------------------------------------|

  LA                SI                   LA                MI
--------------------------------------|--------------------------------------|
-----------5-----------------7--------|-----------5-----------------0--------|
--------6-----6-----------8-----8-----|--------6-----6-----------1-----1-----|
-----7-----------7-----9-----------9--|-----7-----------7-----2-----------2--|
--7-----------------9-----------------|--7-----------------2-----------------|
--------------------------------------|--------------------------------------|

  LA                SI                   FA#m     MI       LA
--------------------------------------|--------------------------------------|
-----------5-----------------7--------|-----------------------------5--------|
--------6-----6-----------8-----8-----|--------2--------1--------6-----6-----|
-----7-----------7-----9-----------9--|-----4--------2--------7-----------7--|
--7-----------------9-----------------|--4--------2--------7-----------------|
--------------------------------------|--------------------------------------|


LA                SI
--------------------------------------|-14--12------14--12------14----------14---------|
-----------5-----------------7--------|---------15----------15------15----------15-----|
--------6-----6-----------8-----8-----|---------------------------------14----------14-|
-----7-----------7-----9-----------9--|------------------------------------------------|
--7-----------------9-----------------|------------------------------------------------|
--------------------------------------|------------------------------------------------|

  RE
--14--12------14--12------14----------14---------|
----------15----------15------15----------15-----|
----------------------------------14----------14-|
-------------------------------------------------|
-------------------------------------------------|
-------------------------------------------------|

  RE
--14--12------14--12------14----------14----------|
----------15----------15------15----------15------|
----------------------------------14----------14--|
--------------------------------------------------|
--------------------------------------------------|
--------------------------------------------------|

[si alza di un'ottava ma il riff e' lo stesso]

 MI                    LA                    SI         LA        MI
-12---------12-------------7---------7----|-12-------------7-----12---------12--------|
-----12---------12------------------------|-----12-------------------12---------12----|
---------9----------9--8h9----9--8h9----9-|---------9--8h9----9----------9----------9-|
------------------------------------------|-------------------------------------------|
------------------------------------------|-------------------------------------------|
------------------------------------------|-------------------------------------------|

  DO#m                LA
---------------------12---------12--------|-----7---------7-----12---------12---------|
-4h5p0~----4h5p0~--------12---------12----|-------------------------12---------12-----|
-----------------------------9----------9-|-8h9----9--8h9----9----------9----------9--|
------------------------------------------|-------------------------------------------|
------------------------------------------|-------------------------------------------|
------------------------------------------|-------------------------------------------|

  SI
------7---------7-----12---------12---------|
--------------------------12---------12-----|
--8h9----9--8h9----9----------9----------9--|
--------------------------------------------|
--------------------------------------------|
--------------------------------------------|

  DO#m                    LA
------11------14--12--11------11------14--12--11--|
--12------12--------------12------12--------------|
--------------------------------------------------|
--------------------------------------------------|
--------------------------------------------------|
--------------------------------------------------|

 DO#m                LA                       DO#m              LA
-----7---------7-----12---------12---------|--------------------12---------12---------|
-------------------------12---------12-----|--5p4p0----5p4p0--------12---------12-----|
-8h9----9--8h9----9----------9----------9--|----------------------------9----------9--|
-------------------------------------------|------------------------------------------|
-------------------------------------------|------------------------------------------|
-------------------------------------------|------------------------------------------|

  SI        LA          MI                    DO#m              SI
------7-----12-------------7---------7-----|--------------------------------------|
----------------12-------------------------|-----------5-----------------7--------|
--8h9----9----------9--8h9----9--8-9----9--|--------6-----6-----------8-----8-----|
-------------------------------------------|-----6-----------6-----9-----------9--|
-------------------------------------------|--4-----------------9-----------------|
-------------------------------------------|--------------------------------------|

  LA                MI                   LA                SI
--------------------------------------|--------------------------------------|
-----------5-----------------0--------|-----------5-----------------7--------|
--------6-----6-----------1-----1-----|--------6-----6-----------8-----8-----|
-----7-----------7-----2-----------2--|-----7-----------7-----9-----------9--|
--7-----------------2-----------------|--7-----------------9-----------------|
--------------------------------------|--------------------------------------|

  LA                MI                   LA                SI
--------------------------------------|--------------------------------------|
-----------5-----------------0--------|-----------5-----------------7--------|
--------6-----6-----------1-----1-----|--------6-----6-----------8-----8-----|
-----7-----------7-----2-----------2--|-----7-----------7-----9-----------9--|
--7-----------------2-----------------|--7-----------------9-----------------|
--------------------------------------|--------------------------------------|

  FA#m     MI       LA                   LA                SI
--------------------------------------|--------------------------------------|
-----------------------------5--------|-----------5-----------------7--------|
--------2--------1--------6-----6-----|--------6-----6-----------8-----8-----|
-----4--------2--------7-----------7--|-----7-----------7-----9-----------9--|
--4--------2--------7-----------------|--7-----------------9-----------------|
--------------------------------------|--------------------------------------|

  RE
--14--12------14--12------14----------14----------|
----------15----------15------15----------15------|
----------------------------------14----------14--|
--------------------------------------------------|
--------------------------------------------------|
--------------------------------------------------|
                                                   [solo] NB: inizia sulla fine della 
  RE                                               battuta precedente.
--14--12------14--12------14----------14----------|------------------------------|
----------15----------15------15----------15------|------------------------------|
----------------------------------14----------14--|----------------------13--14--|
--------------------------------------------------|------------------------------|
--------------------------------------------------|------------------------------|
--------------------------------------------------|------------------------------|

---------------------------------------|-------------------------------------------12-|
-17----17r---12--14--14----14\---------|----------------------------------------------|
---------------------------------------|--------------------------------9--11/-13-----|
--------------------------------18p-16-|-14--16------14--16r-14--9--11----------------|
---------------------------------------|---------16-----------------------------------|
---------------------------------------|----------------------------------------------|

---------------------------------------------------|----------------------------------|
-14~-12r-12-----12r-12r------9--------12--------14-|----------------------------------|
-----11r-11--9--11r-12r----------------------------|-----13h14p13---------------------|
------------------------9h11----11/13-----13/14----|-14------------14-----------------|
---------------------------------------------------|----------------------------------|
---------------------------------------------------|----------------------------------|
[fine solo]




  DO#m              SI                   LA                MI
--------------------------------------|--------------------------------------|
-----------5-----------------7--------|-----------5-----------------0--------|
--------6-----6-----------8-----8-----|--------6-----6-----------1-----1-----|
-----6-----------6-----9-----------9--|-----7-----------7-----2-----------2--|
--4-----------------9-----------------|--7-----------------2-----------------|
--------------------------------------|--------------------------------------|

  LA                SI                   LA                MI
--------------------------------------|--------------------------------------|
-----------5-----------------7--------|-----------5-----------------0--------|
--------6-----6-----------8-----8-----|--------6-----6-----------1-----1-----|
-----7-----------7-----9-----------9--|-----7-----------7-----2-----------2--|
--7-----------------9-----------------|--7-----------------2-----------------|
--------------------------------------|--------------------------------------|

  LA                SI                   FA#m     MI       LA
--------------------------------------|--------------------------------------|
-----------5-----------------7--------|-----------------------------5--------|
--------6-----6-----------8-----8-----|--------2--------1--------6-----6-----|
-----7-----------7-----9-----------9--|-----4--------2--------7-----------7--|
--7-----------------9-----------------|--4--------2--------7-----------------|
--------------------------------------|--------------------------------------|

  LA                SI                RE
------------------------------------|-14--12------14--12------14----------14----------|
----------5-----------------7-------|---------15----------15------15----------15------|
-------6-----6-----------8-----8----|---------------------------------14----------14--|
----7-----------7-----9-----------9-|-------------------------------------------------|
-7-----------------9----------------|-------------------------------------------------|
------------------------------------|-------------------------------------------------|

  RE                                                 MI
--14--12------14--12------14----------14----------|--0------------------------|
----------15----------15------15----------15------|--0------------------------|
----------------------------------14----------14--|--1------------------------|
--------------------------------------------------|--2------------------------|
--------------------------------------------------|--2------------------------|
--------------------------------------------------|--0------------------------|





Comments


Popular Ligabue tabs & chords
Il Campo Delle Lucciole Chords
Piccola Stella Senza Cielo Chords
A Che Ora 1 Tabs
Figlio Dun Cane 2 Tabs
Libera Nos A Malo 1 Tabs
Metti In Circolo Il Tuo Amore Tabs
Quando Tocca A Te Tabs
Un Colpo Allanima Tabs
Walter Il Mago Tabs
Pane Al Pane Ukulele


Song lyrics



↑ Back to top | Tablatures and chords are parodies/interpretations of the original songs. You may use it for private study, scholarship, research or language learning purposes only
© 2014 AZChords.com Contact us | Privacy policy | DMCA | Add/correct tabs | Request tabs | Top 50 tabs