>
 >
Cerca Nel Cuore

Cerca Nel Cuore Guitar Tabs

Ligabue - Cerca Nel Cuore chords, tabs, tablatures, lyrics

Guitar lessons | Add/correct | Request | Top 50 tabs Artists:  A B C D E F G H I J K L M N O P Q R S T U V W X Y Z 0-9

Cerca Nel Cuore Guitar Tabs – Ligabue

CD, Sheet music, Poster

Do you like Cerca Nel Cuore? Share with your friends now
Tabs
~~~~~~~~~~~~~~~
CERCA NEL CUORE
~~~~~~~~~~~~~~~

Con correzioni fondamentali di THESUN
data: 23.09.1998


   D4: x00233
   D2: x00230
   D5: x57775 (barre')
Am7/9: x57557
   C6: x02010 oppure 032210

ULTIMA NOTA: il ritornello e' a due voci. Io le ho trascritte tutte e
             due, spero di non aver fatto troppo casino!
+-+-+-+-+-+-+-+-+-+-+-+-+-+-+-+-+-+-+-+-+-+-+-+-+-+-+-+-+-+-+-+-+-+-+-

[Intro] Chitarra acustica: Am Em G D4 D D2 (x2)

Am       Em       G      D4 D D2
Parlami, parlami, senza dire niente
Am      Em   G         D4 D D2
parlami dai, cerca nel cuore.
Am       Em       G      D4 D D2
Dimmelo, dimmelo, quello che ci serve,
Am        Em    G        D4 D D2     Am7/9
ora o mai piu', fatti mangiare qui
        D5
fatti sentire
Am7/9    D5
fammi sentire sentirti

Em         D    G      D4 D D2
stringi di piu'
io  sono  qui   ne son quasi certo
Em         D     G       D4 D D2
stringi di piu'  cosa ti costa?
io sono qui
Em         D      G     D4 D D2
stringi di piu'
io sono qui       te ne sei accorta?
Em         D     G    D4 D D2 Em  D
stringi di piu'
io sono qui,          qui,        qui

[Solo: ci sono, credo, due chitarre: mentre la prima
suona il giro di accordi la seconda arpeggia cosi']

  Am    Em  G    D4 D D2
e:--------------------------
B:-8-10-----8-10------------
G:------9-7------9-7-----0-- (x2)
D:-------------------9-7----
A:--------------------------
E:--------------------------

[TAB alternativa di Alessandro Marini]
[Solo 1]LAm     MIm           SOL           RE            LAm
e:-----5-------|-------------|-----5-------|-------------|-----5------|
B:-8-----------|-----5-------|-8-----------|-------------|-8----------|
G:-------------|-7-----------|-------------|-7^6---------|------------|
D:-------------|-------------|-------------|-----9^7-----|------------|
A:-------------|-------------|-------------|---------9^7-|------------|
E:-------------|-------------|-------------|-------------|------------|
   1 . 2 . 3 .   1 . 2 . 3 .   1 . 2 . 3 .   1 . 2 . 3 .   1 . 2 . 3

   MIm          SOL            RE
e:-------------|-----5-------|-------------|
B:-----5-------|-8-----------|-------------|
G:-7-----------|-------------|-7^6---------|
D:-------------|-------------|-----9^7-----|
A:-------------|-------------|---------9^7-|
E:-------------|-------------|-------------|
   1 . 2 . 3 .   1 . 2 . 3 .   1 . 2 . 3 .


Am       Em       G       D4 D D2
Parlami, parlami, che non spendi niente,
segnami qui senza rancore.
Cercami, scappami, fatti un po' sudare
toccami qui, proprio sul cuore qui,
fatti sentire
come dovessi morire

Em         D    G      D4 D D2
stringi di piu'
io  sono  qui   ne son quasi certo
Em         D     G       D4 D D2
stringi di piu'  cosa ti costa?
io sono qui
Em         D      G     D4 D D2
stringi di piu'
io sono qui       te ne sei accorta?
Em         D     G    D4 D D2 Em  D   C6
stringi di piu'
io sono qui,          qui,        qui

                   Em    G
Ci son treni che non ripassano,
C6               Em    G
ci son bocche da ricordare,
C6               Em    G
ci son facce che si confondono
C     G      D
e poi ci sei tu,
C     G      D
e ora ci sei tu

[Solo]
   Am             Em  G     D4 D D2
e:-------------------------------
B:--12-10------------------------
G:--------12-11-------12-11-9-7--
D:--------------12-14------------
A:-------------------------------
E:-------------------------------
    Am            Em  G     D4 D D2
e:-------------------------------------
B:--12-10------------------------------
G:--------12-11-------12-11-12-14b15r--
D:--------------12-14------------------
A:-------------------------------------
E:-------------------------------------

[TAB alternativa di Alesandro Marini]
[Solo 2](parte I)
   LAm           MIm       SOL        RE        LAm           MIm
e:-7-5---------|----------|---------|---------|-7-5---------|---------|
B:-----8-7-----|-5--------|-8--7----|-5-------|-----8-7-----|-5-------|
G:---------7---|----------|---------|----7----|---------7---|---------|
D:-------------|----------|---------|---------|-------------|---------|
A:-------------|----------|---------|---------|-------------|---------|
E:-------------|----------|---------|---------|-------------|---------|
   1 . 2 . 3 .   1  2  3    1  2  3   1  2  3   1 . 2 . 3 .   1  2  3

                          (parte II, molto approssimativa)
  SOL        RE            LAm           MIm          SOL
e:---------|------------||-------------|-------------|-------------|
B:-8--7----|-8-/10------||-------------|-0---3---0---|-------------|
G:---------|------------||-0-2-2---2---|-------------|-2-0-0---0---|
D:---------|------------||-------------|-------------|-------------|
A:---------|------------||-------------|-------------|-------------|
E:---------|------------||-------------|-------------|-------------|
   1  2  3   1   2   3     1 . 2 . 3 .   1 . 2 . 3 .   1 . 2 . 3 .

   RE            LAm           MIm          SOL            RE
e:-------------|-------------|-------------|-4---3---2---|-0-----------|
B:-------------|-------------|-0---3---5---|-------------|-------------|
G:-------------|-0-2-2---2---|-------------|-------------|-------------|
D:-4---0-------|-------------|-------------|-------------|-------------|
A:-------------|-------------|-------------|-------------|-------------|
E:-------------|-------------|-------------|-------------|-------------|
   1 . 2 . 3 .   1 . 2 . 3 .   1 . 2 . 3 .   1 . 2 . 3 .   1 . 2 . 3 .

Am Em G D4 D D2

Am Em G D4 D D2

Am7/9         D5
     fatti sentire
Am7/9    D5
fammi sentire sentirti

Em         D   G  D4 D D2
stringi di piu'
Em         D     G       D4 D D2
stringi di piu'  cosa ti costa?
Em         D    G  D4 D D2
stringi di piu'
io sono qui
Em         D     G    D4 D D2
stringi di piu'
io sono qui
Em         D        G      D4 D D2
stringi di piu'
io sono qui      ne son quasi certo
Em         D     G       D4 D D2
stringi di piu'  cosa ti costa?
io sono qui
Em         D      G     D4 D D2
stringi di piu'
io sono qui       te ne sei accorta?
Em         D     G    D4 D D2 Em  D
stringi di piu'
io sono qui,          qui,        qui

Am       Em       G      D4 D D2
Parlami, parlami, senza dire niente
Am      Em   G         D
parlami dai, cerca nel cuore.
             ^
             |---- Rallentando





Comments


Popular Ligabue tabs & chords
Eri Bellisima Chords
Lodore Del Sesso Chords
Questa La Mia Vita Chords
In Pieno Rock N Roll Tabs
Sulla Mia Strada Tabs
Un Colpo Allanima Tabs
Eri Bellissima Ukulele
Forse Mi Trovo Ukulele
Il Mio Pensiero Ukulele
Vivere A Orecchio Ukulele


Song lyrics



↑ Back to top | Tablatures and chords are parodies/interpretations of the original songs. You may use it for private study, scholarship, research or language learning purposes only
© 2014 AZChords.com Contact us | Privacy policy | DMCA | Add/correct tabs | Request tabs | Top 50 tabs