» » »

Young, Loud, And Scotty Tabs (ver.1)

Artists:  A B C D E F G H I J K L M N O P Q R S T U V W X Y Z # 

Young, Loud, And Scotty Tabs (ver.1)

Lifetime
Rating:
0/5 (0 votes)

Hard to play? Try these video lessons and learn fast.
                Lifetime
Young, Loud, and Scotty
Jersey's Best Dancers

Standard tuning

This song gets pretty fast, but it should be alright.
It was hard trying to match up the chords with the lyrics.
But if you know the song, you can figure it out.

Intro
e------------------------------|
B--3~------------3~------------|
G-----0~------------0~---------|  LEAD 1
D------------------------------|
A------------------------------|
E------------------------------|
 |                            |
e------------------------------|
B------------------------------|
G--7--8x--7--8x--4--8x---------|
D--5------4------2------5--8x--|
A-----------------------3------|
E------------------------------|

Verse 1
   G      G/F#   E      C
e------------------------------|
B------------------------------|
G-----------------------5------|
D--5--8x--5--8x--2--8x--5--8x--|
A--5------5------2------3------|
E--3------2------0-------------|
 |                            |
e------------------------------|
B------------------------------|
G--7-7-7-7-7-7-7-7-7-7-7-7-7-7-|
D--5-5-5-5-5-5-5-5-5-5-5-5-5-5-|
A------------------------------|
E------------------------------|
G           G/F#                    E             C
Is it silly to think that this will never happen again
G                       G/F#          E               C
But of course I'll call you tonight. Did you know you missed my birthday

G                D                A           B  C
The loneliest it gets is when the wind begins to chill and when i
G                       E
stand at the top of your old street
A                      B          C
the church top brings a stillness to me.
G                    D            A          B C
And I can't think of anything I'd rather do
G            D               A         B C
than have my heart broken by you.

Chorus
E  B
C           G        C    G          E  B  C
Could we be saved by inventions and hopes?
                 G  fill 1     E B
Said I'm not all right. YEAH!
C                      G   C   G                  E  B  C
The night seems to swallow me whole and spits out second guessing.

Fill 1
e------------------------------|
B------------------------------|
G--12-12-12-12-14-12-12-12-12--|
D---x--x--x--x--x--x--x--x--x--|
A--10-10-10-10-12-10-10-10-10--|
E------------------------------|

Post-Chorus
e-----0----|
B-------0--|
G--2-------|
D--2-------|
A--0-------|
E----------|

Verse 2
G          C               A
I remember ever since that first day
  C                     (LEAD 1 START)
I saw you on the street.
G           C                 A
I've always wanted you in the worst way
    C
but now I can't compete.
G              C         A             C
And I'm so and you're so we're both so w'all f**ked up.
G                C           A                        C B C B C
I don't know but what to do. It just makes me want to scream.

Outro
G              C            A           B  C
Isn't it about time that we try and get it right
G                      C                  A               B  C
Cause I can't sleep on no more floors and I can't stay up no more nights.
G                             C             A               B  C
I'd like to know what's going on. Could you please pick up the phone? I started
            G               C          A                 B  C
I started a million letters to you but I couldn't finish any of them

G C A B C
         Dave's alright.
G C A B C
         He's doing fine.

e----------------------------------------------------------------------------|
B----------------------------------------------------------------------------|
G--17-17-16-12-17-17-16-12-19-19-19-19--17-17-16-12-17-17-16-12-14-14-14-14--|
D---x--x--x--x--x--x--x--x--x--x--x--x---x--x--x--x--x--x--x--x--x--x--x--x--|
A--15-15-14-10-15-15-14-10-17-17-17-17--15-15-14-10-15-15-14-10-12-12-12-12--|
E----------------------------------------------------------------------------|

e-------------------------------------------------------------------------|
B-------------------------------------------------------------------------|
G--12-12-12--14-12-12-12-12--12-12-12-12-12-12-12-14-12-11-7-7-7-12-11-9--|
D---x--x--x---x--x--x--x--x---x--x--x--x--x--x--x--x--x--x-x-x-x--x--x-x--|
A--10-10-10--12-10-10-10-10--10-10-10-10-10-10-10-12-10--9-5-5-5-10--9-7--|
E-------------------------------------------------------------------------|

e--------------------------------|
B--------------------------------|
G--7-7-7-7-7-7-7-9-7-5-----------|
D--x-x-x-x-x-x-x-x-x-x--5-5-5----|
A--5-5-5-5-5-5-5-7-5-3--5-5-5----|
E-----------------------3-3-3----|

That's about it.
Lifetime = the __th best band ever.
            
Hard to play? Try these video lessons and learn fast. | Correct




comments powered by Disqus
↑ Back to top | Tablatures and chords are parodies/interpretations of the original songs. You may use it for private study, scholarship, research or language learning purposes only