» » »

Lifetime, New England Bass tabs (ver.1)

Artists:  A B C D E F G H I J K L M N O P Q R S T U V W X Y Z # 

New England Bass tabs (ver.1)

Lifetime Tabs
 Rating:
4/5 (4 votes)
New England lessons Tabs too difficult? Try these video lessons and learn fast
                Intro
G|-------------------------------|
D|-------------------------------|
A|-------------------------------|
E|-1111-1101011-1111111111111111-|

Verse
G|---------------------------------------------------------------------------|
D|---------------------------------------------------------------------------|
A|------------------33333333-55555555-11111111----------33333333-11111111----|
E|-1111111111111111----------------------------11111111-------------------1~-|

G|------------------------------------------------------------------------------|
D|------------------------------------------------------------------------------|
A|------------------33333333-55555555-11111111----------33333333----------1~-1~-|
E|-1111111111111111----------------------------11111111----------11111111-------|

Chorus
G|------------------------------------------------------------|
D|------------------------------------------------------------|
A|-1~----------------------5-55555-1-11111---------3-33333-1~-|
E|-----5~--1-11111-1-11111-----------------5-55555------------|

G|------------------------------------------|
D|------------------------------------------|
A|-1~----------------------5-55555-11-33----|
E|-----5~--1-11111-1-11111---------------11-|

Verse
G|---------------------------------------------------------------------------|
D|---------------------------------------------------------------------------|
A|------------------33333333-55555555-11111111----------33333333-11111111----|
E|-1111111111111111----------------------------11111111-------------------1~-|

G|------------------------------------------------------------------------|
D|------------------------------------------------------------------------|
A|------------------33333333-55555555-11111111----------33333333-1~-1~-1~-|
E|-1111111111111111----------------------------11111111-------------------|

Chorus
G|------------------------------------------------------------|
D|------------------------------------------------------------|
A|-1~----------------------5-55555-1-11111---------3-33333-1~-|
E|-----5~--1-11111-1-11111-----------------5-55555------------|

G|--------------------------------------------|
D|--------------------------------------------|
A|-1~----------------------5-55555-11-33------|
E|-----5~--1-11111-1-11111---------------1111-|

Outro       x3                    x3
G|------------|-------|-------------|-------|
D|------------|-------|-33----------|-3-3-3-|
A|-11-33------|-11-33-|----33-11-33-|-------|
E|-------1111-|-------|-------------|-------|
            
Submit corrections

comments powered by Disqus
↑ Back to top | Lifetime Bass for New England. Lyrics for acoustic guitar and electric guitar. Tablatures and chords are parodies/interpretations of the original songs. You may use it for private study, scholarship, research or language learning purposes only