» » »

Isae Aldy Beausoleil Tabs (ver.1)

Artists:  A B C D E F G H I J K L M N O P Q R S T U V W X Y Z # 

Isae Aldy Beausoleil Tabs (ver.1)

Lifetime
Rating:
0/5 (0 votes)

Tabs too difficult? Try these video lessons and learn fast.
                off there album 7inches pretty sick song

It is in standard


Intro/Chorus
E-----------------------------------|
A--2/4-------2-2--2---2/4-------7-6-|
D------6-----0-0--0-------6-----9-9-|
G--------8------------------8-------|
B-----------------------------------|
E-----------------------------------|

Verse listen for rythm
E-2-4-5-7-|
A-4-6-7-9-|
D---------|
G---------|
B---------|
E---------|

interlude
E-4-x-4-----------------4-x-4---------6-|
A-2-x-2--4/5-55-8---7---2-x-2--4/5-55-8-|
D--------6/7-77-10--9----------6/7-77---|
G---------------------------------------|
B---------------------------------------|
E---------------------------------------|

th th th th thats all folks

check out point of view
            
Tabs too difficult? Try these video lessons and learn fast.




comments powered by Disqus
↑ Back to top | Tablatures and chords are parodies/interpretations of the original songs. You may use it for private study, scholarship, research or language learning purposes only