» » »

Lifetime, Cut The Tension Bass tabs (ver.1)

Artists:  A B C D E F G H I J K L M N O P Q R S T U V W X Y Z # 

Cut The Tension Bass tabs (ver.1)

Lifetime Tabs
 Rating:
4/5 (4 votes)
Cut The Tension lessons Tabs too difficult? Try these video lessons and learn fast
                -------------------------------------------------------------------------------
-------------------------------------------------------------------------------


Tuning: Drop D

Intro/verse 1 x 6

G|-----------------------------------------------------------------------------|
D|-----------------------------------------------------------------------------|
A|-777-77-7-\999-999-\1111-11-/77-7--------------------------------------------|
D|----------------------------------7-77--\11----------------------------------|

on sixth time dont worry about sliding to the 11th on the D, just go straight into the chorus.

Chorus x 4

G|-----------------------------------------------------------------------------|
D|-----------------------------------------------------------------------------|
A|-------------------7-77-7-7-7-77---------------------777-777-777-777---------|
D|-4--4-4--\7-7-77--------------------4--4-4--\7-7-77--------------------------|

fourth time

G|-----------------------------------------------------------------------------|
D|-------------------7-77-7-7-7-77---------------------------------------------|
A|-4--4-4--\7-7-77--------------------4--4-4--\7-7-77--------------------------|
D|-------------------------------------------------------99999999999999--------|

Then return to the verse however only play 4 times this time round

outro x 4

G|-----------------------------------------------------------------------------|
D|-----------------------------------------------------------------------------|
A|-----------------------------------------------------------------------------|
D|-2--2-2-2\4-4-44-4--6--6-6-6--\7--7-7-76-------------------------------------|

fourth time

G|-----------------------------------------------------------------------------|
D|-----------------------------------------------------------------------------|
A|-----------------------------------------------------------------------------|
D|-2--2-2-2\4-4-44-4--6--6-6-6--\7--7-7-76--/2---------------------------------|

feel free to correct me on any mistakes, though i feel this is pretty accurate!
The timing of the attacks can be kinda tricky so i'd advise listening to the song first.

:)

| /  slide up
| \  slide down
            
Submit corrections

comments powered by Disqus
↑ Back to top | Lifetime Bass for Cut The Tension. Lyrics for acoustic guitar and electric guitar. Tablatures and chords are parodies/interpretations of the original songs. You may use it for private study, scholarship, research or language learning purposes only