» » »

Lifetime, Airport Monday Morning Tabs (ver.1)

Artists:  A B C D E F G H I J K L M N O P Q R S T U V W X Y Z # 

Airport Monday Morning Tabs (ver.1)

Lifetime Tabs
 Rating:
4/5 (4 votes)
Airport Monday Morning lessons Tabs too difficult? Try these video lessons and learn fast
                ----------------------------------------------------------------------------
----------------------------------------------------------------------------

Tuning:  Standard

Verse 1

  Kissing Goodbye, Tears in her eyes,
e|-------------------------------------------------------------------------|
B|-------------------------------------------------------------------------|
G|4------------------------------------------------------------------------|
D|4---------------4------6-----2-------------------------------------------|
A|2---------------4------6-----2-------------------------------------------|
E|----------------2------4-----0-------------------------------------------|

  It's the last time, The last time you can be sure of,
e|-------------------------------------------------------------------------|
B|-------------------------------------------------------------------------|
G|--------4----------------------------------------------------------------|
D|--------4-------------------4----6----2----------------------------------|
A|--------2-------------------4----6----2----------------------------------|
E|----------------------------2----4----0----------------------------------|

  But I can taste the salty kisses
e|-------------------------------------------------------------------------|
B|-------------------------------------------------------------------------|
G|4------------------------------------------------------------------------|
D|4--------------------4--6--2---------------------------------------------|
A|2--------------------4--6--2---------------------------------------------|
E|---------------------2--4--0---------------------------------------------|

  and the runny makeup, Yea, it could be so boring
e|-------------------------------------------------------------------------|
B|-------------------------------------------------------------------------|
G|--------4----------------------------------------------------------------|
D|--------4-------------4----6--2------------------------------------------|
A|--------2-------------4----6--2------------------------------------------|
E|----------------------2----4--0------------------------------------------|

BRIDGE

  But she keeps crying, And they keep kissing
e|-------------------------------------------------------------------------|
B|-4-----------------------------------------------------------------------|
G|--6-------------------4--------------------------------------------------|
D|---6---------2---4----4--------------------------------------------------|
A|-------------2---4----2--------------------------------------------------|
E|-------------0---2-------------------------------------------------------|

  And I just hang about & listen
e|-------------------------------------------------------------------------|
B|-4-----------------------------------------------------------------------|
G|--6-------------------4--------------------------------------------------|
D|---6---------2---4----4--------------------------------------------------|
A|-------------2---4----2--------------------------------------------------|
E|-------------0---2-------------------------------------------------------|

CHORUS (Listen to Song for Rythmn)

                She's got to go,                    She's got to go,       
e|-------------------------------------------------------------------------|
B|-------------------------------------------------------------------------|
G|--------------4-----------------------------------4----------------------|
D|4-------------4-----6------4----------------------4-----6------4---------|
A|4-------------2-----6------4----------------------2-----6------4---------|
E|2-------------------4------2----------------------------4------2---------|

  In the airport, in the morning, and I know She's got to go
e|-------------------------------------------------------------------------|
B|-------------------------------------------------------------------------|
G|---4---------------------------------------------------------------------|
D|---4------------6---------------4------------------------2-------////////|
A|---2------------6---------------4------------------------2-------////////|
E|----------------4---------------2------------------------0-------////////|

Verse 2

  Now it's time they know, They don't take a step,
e|-------------------------------------------------------------------------|
B|-------------------------------------------------------------------------|
G|4------------------------------------------------------------------------|
D|4---------------4------6-----2-------------------------------------------|
A|2---------------4------6-----2-------------------------------------------|
E|----------------2------4-----0-------------------------------------------|

  Line keeps on pushing, They won't stop kissing,
e|-------------------------------------------------------------------------|
B|-------------------------------------------------------------------------|
G|--------4----------------------------------------------------------------|
D|--------4-------------------4----6----2----------------------------------|
A|--------2-------------------4----6----2----------------------------------|
E|----------------------------2----4----0----------------------------------|

  The airport is racing, The smokers are pacing,
e|-------------------------------------------------------------------------|
B|-------------------------------------------------------------------------|
G|4------------------------------------------------------------------------|
D|4--------------------4--6--2---------------------------------------------|
A|2--------------------4--6--2---------------------------------------------|
E|---------------------2--4--0---------------------------------------------|

  It just started raining, Soon I'll have to go
e|-------------------------------------------------------------------------|
B|-------------------------------------------------------------------------|
G|--------4----------------------------------------------------------------|
D|--------4-------------4----6--2------------------------------------------|
A|--------2-------------4----6--2------------------------------------------|
E|----------------------2----4--0------------------------------------------|

BRIDGE

  But she keeps crying, And they keep kissing
e|-------------------------------------------------------------------------|
B|-4-----------------------------------------------------------------------|
G|--6----------------4-----------------------------------------------------|
D|---6---------2---4-4-----------------------------------------------------|
A|-------------2---4-2-----------------------------------------------------|
E|-------------0---2-------------------------------------------------------|

  And I just hang about & listen
e|-------------------------------------------------------------------------|
B|-4-----------------------------------------------------------------------|
G|--6----------------4-----------------------------------------------------|
D|---6---------2---4-4-----------------------------------------------------|
A|-------------2---4-2-----------------------------------------------------|
E|-------------0---2-------------------------------------------------------|

CHORUS

               But  She's got to go,                She's got to go,       
e|-------------------------------------------------------------------------|
B|-------------------------------------------------------------------------|
G|--------------4-----------------------------------4----------------------|
D|4-------------4-----6------4----------------------4-----6------4---------|
A|4-------------2-----6------4----------------------2-----6------4---------|
E|2-------------------4------2----------------------------4------2---------|

  In the airport, in the morning, and I know She's got to go
e|-------------------------------------------------------------------------|
B|------------------------------------------------------------------------R|
G|---4-----------------------------------------------------------------4--I|
D|---4------------6---------------4------------------------2-------6-4-4--N|
A|---2------------6---------------4------------------------2-------6-4-2--G|
E|----------------4---------------2------------------------0-------4-2-----|

VERSE 3

  In the morning, In the airport She's crying and the phone rings
e|-------------------------------------------------------------------------|
B|-------------------------------------------------------------------------|
G|4------------------------------------------------------------------------|
D|4------------------------------------2--------------6---------4----------|
A|2------------------------------------2--------------6---------4----------|
E|-------------------------------------0--------------4---------2----------|

  And you answer, and its quiet And there's nothing that'll change the fact
e|-------------------------------------------------------------------------|
B|-------------------------------------------------------------------------|
G|4------------------------------------------------------------------------|
D|4------------------------------------2--------------------6---------4----|
A|2------------------------------------2--------------------6---------4----|
E|-------------------------------------0--------------------4---------2----|

  That she's leaving tomorrow  And you'll end up being alone again 
e|-------------------------------------------------------------------------|
B|-------------------------------------------------------------------------|
G|4------------------------------------------------------------------------|
D|4---------------------------------------2------------6-----4-------------|
A|2---------------------------------------2------------6-----4-------------|
E|----------------------------------------0------------4-----2-------------|

  With nothing to distract ya, you watch the clock as it keeps ticking
e|-------------------------------------------------------------------------|
B|-------------------------------------------------------------------------|
G|4------------------------------------------------------------------------|
D|4--------------------------------2------------------6-----4--------------|
A|2--------------------------------2------------------6-----4--------------|
E|---------------------------------0------------------4-----2--------------|

OUTRO

                        Monday morning airport
e|------------------------------------------------------------------------R|
B|------------------------------------------------------------------------E|
G|4-----------------------------------------------------------------------P|
D|4--------------2------6------4------------------------------------------E|
A|2--------------2------6------4------------------------------------------A|
E|---------------0------4------2------------------------------------------T|



| /  slide up
| \  slide down
| h  hammer-on
| p  pull-off
| ~  vibrato
| +  harmonic
| x  Mute note
===============================================================================
            
Submit corrections

comments powered by Disqus
↑ Back to top | Lifetime Tabs for Airport Monday Morning. Lyrics for acoustic guitar and electric guitar. Tablatures and chords are parodies/interpretations of the original songs. You may use it for private study, scholarship, research or language learning purposes only