» » »

Lifelover, Sweet Illness Of Mine Tabs (ver.1)

Artists:  A B C D E F G H I J K L M N O P Q R S T U V W X Y Z # 

Sweet Illness Of Mine Tabs (ver.1)

Lifelover Tabs
 Rating:
4/5 (4 votes)
Sweet Illness Of Mine lessons Tabs too difficult? Try these video lessons and learn fast
                INTRO GUITAR 1

E |------------------------------------------------------------------|
b |------------------------------------------------------------------|
g |------------------------------------------------------------------|
d |-5-5-5-5-5-4-4-4--------------------------------------------------|
a |-3-3-3-3-3-2-2-2--5-5-5-5-5-4-4-4---------------------------------|
e |------------------3-3-3-3-3-2-2-2---------------------------------|

Intro Guitar 2

E |------------------------------------------------------------------|
b |------------------------------------------------------------------|
g |---/5-4-----------------------------------------------------------|
d |---------5-4---5-4------------------------------------------------|
a |------------------------------------------------------------------|
e |------------------------------------------------------------------|

Verses - Guitar 1

E |-------------------------------------------------------------------|
b |-------------------------------------------------------------------|
g |-------------------------------------------------------------------|
d |-4-4-4-4-4-5-5-5---------------------------------------------------|
a |-2-2-2-2-2-3-3-3-4-4-4-4-4-5-5-5-5---------------------------------|
e |-----------------2-2-2-2-2-3-3-3-3---------------------------------|

Verses - Guitar 2

E |------------------------------------------------------------------|
b |------------------------------------------------------------------|
g |------------------------------------------------------------------|
d |---/4-5-----------------------------------------------------------|
a |---------4-5-4----------------------------------------------------|
e |------------------------------------------------------------------|

Then

E |------------------------------------------------------------------|
b |------------------------------------------------------------------|
g |------------------------------------------------------------------|
d |------------------------------------------------------------------|
a |-4-4-4-4-4-4-4-7-7-7-7-9-9-5-5------------------------------------|
e |-2-2-2-2-2-2-2-5-5-5-5-7-7-3-3------------------------------------|

That's all. Just repeat as often as you need.
            
Submit corrections

comments powered by Disqus
↑ Back to top | Lifelover Tabs for Sweet Illness Of Mine. Lyrics for acoustic guitar and electric guitar. Tablatures and chords are parodies/interpretations of the original songs. You may use it for private study, scholarship, research or language learning purposes only