» » »

M/S Salmonella Tabs (ver.1)

Artists:  A B C D E F G H I J K L M N O P Q R S T U V W X Y Z # 

M/S Salmonella Tabs (ver.1)

Lifelover
Rating:
0/5 (0 votes)

Hard to play? Try these video lessons and learn fast.
                Lifelover – M/S Salmonella

Standard tuning: Ebgdae

\ = slide down

INTRO
E |--------------12--10----7-8-7--------|
b |--7--8----7--------------------------|
g |-------------------------------------|
d |-------------------------------------|
a |-------------------------------------|
e |-------------------------------------|

VERSE
E |-------------------------------------|
b |-------------------------------------|
g |-------9--7--5\4---------------------|
d |--2----9--7--5\4---------------------|
a |--2----7--5--3\2---------------------|
e |--0----------------------------------|

BUILD UP
E |------------------------------------------------------|
b |------------------------------------------------------|
g |------------------------------------------------------|
d |--------------4--4--------------4--3------------------|
a |--22222222222-2--2--22222222222-2--1------------------|
e |--00000000000---0---00000000000---0-------------------|

BREAK
E |---------------------------------------|
b |---------------------------------------|
g |-----4-3----7-6-----2-1-----5-4--------|
d |---------------------------------------|
a |---------------------------------------|
e |--00-----00-----00------00-------------|

E |--------------------------------------------------------|
b |--------------------------------------------------------|
g |------------4-3----------7-6---------2-1----------5-4---|
d |----------0-------------0-----------0------------0------|
a |--------------------------------------------------------|
e |--00000-------00000-------00000-----00000---------------|

MAIN RIFF
E |--------------12--10----7-8-7--------|
b |--7--8----7--------------------------|
g |-------------------------------------|
d |-------------------------------------|
a |-------------------------------------|
e |-------------------------------------|

BUILD UP
E |------------------------------------------------------|
b |------------------------------------------------------|
g |------------------------------------------------------|
d |--------------4--4--------------4--3------------------|
a |--22222222222-2--2--22222222222-2--1------------------|
e |--00000000000---0---00000000000---0-------------------|

OUTRO
E |------------------------------------------|
b |------------------------------------------|
g |--7---7---7---7---6---6---6---6-----------|
d |---9---9---9---9---8---8---8---8----------|
a |-----9---9---9---9---9---9---9---9--------|
e |------------------------------------------|

LAST TIME
E |----------------------------------------------------|
b |----------------------------------------------------|
g |--7---7---7---7---6---6---6----/11--10P11-----------|
d |---9---9---9---9---8---8---8------------------------|
a |-----9---9---9---9---9---9---9----------------------|
e |----------------------------------------------------|

Lifelover songs! Hail
            
Hard to play? Try these video lessons and learn fast. | Correct




comments powered by Disqus
↑ Back to top | Tablatures and chords are parodies/interpretations of the original songs. You may use it for private study, scholarship, research or language learning purposes only