» » »

Lifelover, Hostdepressioner Tabs (ver.1)

Artists:  A B C D E F G H I J K L M N O P Q R S T U V W X Y Z # 

Hostdepressioner Tabs (ver.1)

Lifelover Tabs
Rating:
5/5 (2 votes)
Hostdepressioner lessons Tabs too difficult? Try these video lessons and learn fast
                Lifelover – Höstdepressioner


INTRO 1  GUITAR 2
E |-----------------------------------------------|
b |-----------------------------------------------|
g |------5-----5----5-----5-----5--------5--------|
d |----2-----2----2-----2-----2--------2----------|
a |--0----0------0----0------0---3---0------------|
e |----------------------------------------3------|

INTRO GUITAR 1
E |-----------------------------------------------|
b |-----------------------------------------------|
g |--4--5--4--2r----4--5--4--7r-------------------|
d |-----------------------------------------------|
a |-----------------------------------------------|
e |-----------------------------------------------|

CHORUS GUITAR 1
E |-----------------------------------------------|
b |--------8--6-----------------------------------|
g |--4/5---------9--5r----------------------------|
d |-----------------------------------------------|
a |-----------------------------------------------|
e |-----------------------------------------------|

CHORUS GUITAR 2
E |-----------------------------------------------|
b |-----------------------------------------------|
g |------5-----5----5-----5-----5--------5--------|
d |----2-----2----2-----2-----2--------2----------|
a |--0----0------0----0------0---3---0------------|
e |---------------------------------------3-------|

VERSE1 GUITAR 1
E |--------------------------------------------------------------------------|
b |--------------------------------------------------------------------------|
g |--22222222-555-44444--22222222-555-44444-2222222222222222222222222222222--|
d |--------------------------------------------------------------------------|
a |--------------------------------------------------------------------------|
e |--------------------------------------------------------------------------|

VERSE1 GUITAR 2
E |-------------------------------------------------------------------|
b |-------------------------------------------------------------------|
g |--2r------2r---------5----5-----5----5-----5----5-----5----5-------|
d |--2r------2r-------2----2-----2----2-----2----2-----2----2---------|
a |--0r------0r------0---3------0----------0----3-----0---------------|
e |----------------------------------3---------------------3----------|


CHORUS GUITAR 1
E |-----------------------------------------------|
b |--------8--6-----------------------------------|
g |--4/5---------9--5r----------------------------|
d |-----------------------------------------------|
a |-----------------------------------------------|
e |-----------------------------------------------|

CHORUS GUITAR 2
E |-----------------------------------------------|
b |-----------------------------------------------|
g |------5-----5----5-----5-----5--------5--------|
d |----2-----2----2-----2-----2--------2----------|
a |--0----0------0----0------0---3---0------------|
e |---------------------------------------3-------|

CHORUS GUITAR 3
E |-----------------------------------------------|
b |-----------------------------------------------|
g |--4--5--4--2r----4--5--4--7r-------------------|
d |-----------------------------------------------|
a |-----------------------------------------------|
e |-----------------------------------------------|

VERSE1 GUITAR 1
E |------------------------------------------------------------|
b |------------------------------------------------------------|
g |--22222222-555-44444--22222222-555-44444--------------------|
d |------------------------------------------------------------|
a |------------------------------------------------------------|
e |------------------------------------------------------------|

VERSE2 GUITAR 1
E |--------------------------------------------------------------|
b |--------------------------------------------------------------|
g |--22222222-777-55-444--22222222-777-55-444--------------------|
d |--------------------------------------------------------------|
a |--------------------------------------------------------------|
e |--------------------------------------------------------------|

THROUGH THOSE VERSES GUITAR 2 ONLY GOES
E |-----------------------------------------------|
b |-----------------------------------------------|
g |--2r--2r--2r--2r--2r--2r--2r--2r---------------|
d |--2r--2r--2r--2r--2r--2r--2r--2r---------------|
a |--0r--0r--0r--0r--0r--0r--0r--0r---------------|
e |-----------------------------------------------|

BREAK GUITAR 2
E |----------------------------------------------------------|
b |----------------------------------------------------------|
g |----------------------------------------------------------|
d |--2222222222222222----------------------------------------|
a |--3333333333333333--33333333--22222222--------------------|
e |--------------------55555555--33333333--------------------|

BREAK GUITAR 1
E |-----------------------------------------------|
b |------8r--5r--3r-----8r--5r--3r----------------|
g |--5r---------------5r--------------------------|
d |-----------------------------------------------|
a |-----------------------------------------------|
e |-----------------------------------------------|

OUTRO
E |----------------------------------------------------------|
b |----------------------------------------------------------|
g |----------------------------------------------------------|
d |--2222222222222222----------------------------------------|
a |--3333333333333333--33333333--22222222--------------------|
e |--------------------55555555--33333333--------------------|

E |-------|
b |-------|
g |-------|
d |--2r--|
a |-------|
e |-------|
            

comments powered by Disqus
↑ Back to top | Lifelover Tabs for Hostdepressioner. Lyrics for acoustic guitar and electric guitar. Tablatures and chords are parodies/interpretations of the original songs. You may use it for private study, scholarship, research or language learning purposes only