» » »

Lifelover, Cancertid Tabs (ver.1)

Artists:  A B C D E F G H I J K L M N O P Q R S T U V W X Y Z # 

Cancertid Tabs (ver.1)

Lifelover Tabs
 Rating:
4.2/5 (5 votes)
Cancertid lessons Tabs too difficult? Try these video lessons and learn fast
1
                Lifelover – Cancertid

Brutal song from Konkurs! Here we go!

Standard Tuning : Ebgdae

r = let ring
/ = slide up

INTRO GUITAR 1
E |-------------------------------------------------------|
b |-------------------------------------------------------|
g |-------------------------------------------------------|
d |---9-9-9-9-9-9-9-9-10--10--10--10-9-9-9-9--------------|
a |--7-7-7-7-7-7-7-7-7---7---7---7---7-7-7-7--------------|
e |-------------------------------------------------------|

INTRO GUITAR 2
E |------------------------------|
b |------------------------------|
g |--9r----9r----5r----4r--------|
d |--9r----9r----5r----4r--------|
a |--7r----7r----3r----2r--------|
e |------------------------------|

CHORUS GUITAR 1
E |---------------------------------------------|
b |---------------------------------------------|
g |--5-44444444444444-77-000000-44--------------|
d |----------------------------------4444444----|
a |---------------------------------------------|
e |---------------------------------------------|

CHORUS GUITAR 2
E |----------------------------------------------------------|
b |----------------------------------------------------------|
g |----------------------------------------------------------|
d |------------------------------44444444--------------------|
a |--2222222222222222--55555555--22222222--------------------|
e |--0000000000000000--33333333------------------------------|

VERSE GUITAR 1
E |-------------------------------------------------------|
b |-------------------------------------------------------|
g |-------------------------------------------------------|
d |---9-9-9-9-9-9-9-9-10--10--10--10-9-9-9-9--------------|
a |--7-7-7-7-7-7-7-7-7---7---7---7---7-7-7-7--------------|
e |-------------------------------------------------------|

VERSE GUITAR 2
E |------------------------------|
b |------------------------------|
g |--9r----9r----5r----4r--------|
d |--9r----9r----5r----4r--------|
a |--7r----7r----3r----2r--------|
e |------------------------------|

CHORUS GUITAR 1
E |------------------------------------------------------------|
b |------------------------------------------------------------|
g |--5-44444444444444-77-000000-44-----------------------------|
d |----------------------------------4444444-------------------|
a |------------------------------------------------------------|
e |------------------------------------------------------------|

CHORUS GUITAR 2
E |----------------------------------------------------------|
b |----------------------------------------------------------|
g |----------------------------------------------------------|
d |------------------------------44444444--------------------|
a |--2222222222222222--55555555--22222222--------------------|
e |--0000000000000000--33333333------------------------------|

BRIDGE
E |-------------------------------------|
b |-------------------------------------|
g |-------------------------------------|
d |-------------------------------------|
a |--3-2----3-2--3/5---3-2--------------|
e |-------------------------------------|

CHORUS GUITAR 1
E |------------------------------------------------------------|
b |------------------------------------------------------------|
g |--5-44444444444444-77-000000-44-----------------------------|
d |----------------------------------4444444-------------------|
a |------------------------------------------------------------|
e |------------------------------------------------------------|


CHORUS GUITAR 2
E |----------------------------------------------------------|
b |----------------------------------------------------------|
g |----------------------------------------------------------|
d |------------------------------44444444--------------------|
a |--2222222222222222--55555555--22222222--------------------|
e |--0000000000000000--33333333------------------------------|

BRIDGE
E |-------------------------------------|
b |-------------------------------------|
g |-------------------------------------|
d |-------------------------------------|
a |--3-2----3-2--3/5---3-2--------------|
e |-------------------------------------|

PRE-SOLO (Can't almost hear it)
E |---------------------------------------------------|
b |---------------------------------------------------|
g |---------------------------------------------------|
d |-------9--9------9--9-------5--5------4--4---------|
a |--7-7---7---7-7---7----3-3---3---2-2---2-----------|
e |---------------------------------------------------|

SOLO x2
E |------------------------------------------------|
b |--12-10-9--------12-10-9------------9-----------|
g |------------10-9------------10-9-------10-9-----|
d |------------------------------------------------|
a |------------------------------------------------|
e |------------------------------------------------|
     x2
E |-------------------------------------|
b |------------10-9---------------------|
g |--9--10-9-------10-9--10-9-----------|
d |-------------------------------------|
a |-------------------------------------|
e |-------------------------------------|

HEAVY CHORUS
E |----------------------------------------------------------|
b |----------------------------------------------------------|
g |------------------------------44444444--------------------|
d |--2222222222222222--55555555--44444444--------------------|
a |--2222222222222222--55555555--22222222--------------------|
e |--0000000000000000--33333333------------------------------|

CHORUS GUITAR 1
E |------------------------------------------------------------|
b |------------------------------------------------------------|
g |--5-44444444444444-77-000000-44-----------------------------|
d |----------------------------------4444444-------------------|
a |------------------------------------------------------------|
e |------------------------------------------------------------|

CHORUS GUITAR 2
E |----------------------------------------------------------|
b |----------------------------------------------------------|
g |----------------------------------------------------------|
d |------------------------------44444444--------------------|
a |--2222222222222222--55555555--22222222--------------------|
e |--0000000000000000--33333333------------------------------|

LAST TIME GUITAR 2 PALMMUTES

CARNEVAL TIME FFS!


Finally i got this song right its so awesome! Enjoy all u BMheadz!
            
Submit corrections

comments powered by Disqus
↑ Back to top | Lifelover Tabs for Cancertid. Lyrics for acoustic guitar and electric guitar. 1 Tablatures and chords are parodies/interpretations of the original songs. You may use it for private study, scholarship, research or language learning purposes only