>
 >
The Beginning

The Beginning Guitar Tabs

Lifehouse - The Beginning chords, tabs, tablatures, lyrics

Guitar lessons | Add/correct | Request | Top 50 tabs Artists:  A B C D E F G H I J K L M N O P Q R S T U V W X Y Z 0-9

The Beginning Guitar Tabs – Lifehouse

CD, Sheet music, Poster

Do you like The Beginning? Share with your friends now
Tabs
Lifehouse-The Begining

Standard Tuning-EADGBE(low to high)

Intro/Verse Parts-I just put the basic chords in tab.
  D#/Eb                            C
|----------------------------------------------------------------------|
|----------------------------------------------------------------------|
|-8-8-8-8-8-8-8-8-8-8-8-8-8-8-8-8--5-5-5-5-5-5-5-5-5-5-5-5-5-5-5-5-5-5-|
|-8-8-8-8-8-8-8-8-8-8-8-8-8-8-8-8--5-5-5-5-5-5-5-5-5-5-5-5-5-5-5-5-5-5-|
|-6-6-6-6-6-6-6-6-6-6-6-6-6-6-6-6--3-3-3-3-3-3-3-3-3-3-3-3-3-3-3-3-3-3-|
|-6-6-6-6-6-6-6-6-6-6-6-6-6-6-6-6--3-3-3-3-3-3-3-3-3-3-3-3-3-3-3-3-3-3-|
  A#/Bb             G                G#/Ab
|-----------------------------------------------------|
|-----------------------------------------------------|
|-----------------------------------------------------|
|-8-8-8-8-8-8-8-8---5-5-5-5-5-5-5-5--6-6-6-6-6-6-6-6--|
|-8-8-8-8-8-8-8-8---5-5-5-5-5-5-5-5--6-6-6-6-6-6-6-6--|
|-6-6-6-6-6-6-6-6---3-3-3-3-3-3-3-3--4-4-4-4-4-4-4-4--|

Pre-Chorus-Directly after verse go back to this G chord
|-------------------3-3-3-3-3-3-3-------|
|-------------------3-3-3-3-3-3-3-------|
|-----4-----4-----4-4-4-4-4-4-4-4-------|
|-5-5-5-5-5-5-5-5-5-5-5-5-5-5-5-5-------|
|-5-5-5-5-5-5-5-5-5---------------------|
|-3-3-3-3-3-3-3-3-----------------------|

Chorus


  C                                A  
|----------------------------------------------------------------------|
|----------------------------------------------------------------------|
|-5-5-5-5-5-5-5-5-5-5-5-5-5-5-5-5--------------------------------------|
|-5-5-5-5-5-5-5-5-5-5-5-5-5-5-5-5--7-7-7-7-7-7-7-7-7-7-7-7-7-7-7-7-----|
|-3-3-3-3-3-3-3-3-3-3-3-3-3-3-3-3--7-7-7-7-7-7-7-7-7-7-7-7-7-7-7-7-----|
|-3-3-3-3-3-3-3-3-3-3-3-3-3-3-3-3--5-5-5-5-5-5-5-5-5-5-5-5-5-5-5-5-----|

  F                                Fminor
|----------------------------------------------------------------------|
|----------------------------------------------------------------------|
|-2-2-2-2-2-2-2-2-2-2-2-2-2-2-2-2--1-1-1-1-1-1-1-1-1-1-1-1-1-1-1-1-----|
|-3-3-3-3-3-3-3-3-3-3-3-3-3-3-3-3--3-3-3-3-3-3-3-3-3-3-3-3-3-3-3-3-----|
|-3-3-3-3-3-3-3-3-3-3-3-3-3-3-3-3--3-3-3-3-3-3-3-3-3-3-3-3-3-3-3-3-----|
|-1-1-1-1-1-1-1-1-1-1-1-1-1-1-1-1--1-1-1-1-1-1-1-1-1-1-1-1-1-1-1-1-----|

Bridge-Wasn't to sure about this but i did my best
|----------------------------------|
|----------------------------------|
|----------------------------------|(2x)
|---------5--3---------------------|
|-3----3--------5-1--1/3-----------|
|---4------------------------------|
  C     Bb    G
|----------------------------------|
|----------------------------------|
|-5~----3~-------------------------|
|-5~----3~----5~-------------------|
|-3~----1~----5~-------------------|
|-3~----1~----3~-------------------|


Verse-x3
Pre-Chorus
Chorus-x2
Verse-x2
Pre-Chorus
Chorus-x2
Bridge
Chorus-x4

Enjoy!





Comments


Popular Lifehouse tabs & chords
Everything 2 Bass Tabs
Mesmerized Chords
The Joke Chords
Undone Chords
Everything 4 Tabs
From Where You Are Tabs
Stanley Climbfall Tabs
Me And You Ukulele
Somewhere Only We Know Ukulele
Whatever It Takes 2 Ukulele


Song lyrics



↑ Back to top | Tablatures and chords are parodies/interpretations of the original songs. You may use it for private study, scholarship, research or language learning purposes only
© 2014 AZChords.com Contact us | Privacy policy | DMCA | Add/correct tabs | Request tabs | Top 50 tabs