» » »

Storm Tabs (ver.2)

Artists:  A B C D E F G H I J K L M N O P Q R S T U V W X Y Z # 

Storm Tabs (ver.2)

Lifehouse
Rating:
0/5 (0 votes)

Hard to play? Try these video lessons and learn fast.
                CHORDS

    Em7    D/F#  G     C     D
-----0-----0-----0-----0-----0-----
-----3-----3-----3-----3-----3-----
-----0-----2-----0-----0-----2-----
-----2-----0-----0-----2-----0-----
-----2-----0-----2-----3-----------
-----0-----2-----3-----------------

INTRO
E---------------------------------------------------------
B-------3-----------3-----------3-----------3-------------
G-----0---0-------0---0-------0---0-------0---0-----------
D---2-------2---2-------2---0-------0---0-------0---------
A-------------3-------------------------------------------
E-0-----------------------3-----------3------------------- 

E---------------------------------------------------------
B-------3-----------3-----------3-----------3-------------
G-----0---0-------0---0-------0---0-------0---0-----------
D---2-------2---2-------2---0-------0---0-------0---------
A---------------------------------------------------------
E-0-----------2-----------3-----------3------------------- 

E---------------------------------------------------------
B-------3-----------3-----------3---------3-------3-------
G-----0---0-------0---0-------0---0---------0-------0-----
D---2-------2---2-------2---0-------0---0-------0---------
A-------------3-------------------------------------------
E-0-----------------------3-----------3-------2-----------

E---------------------------------------------------------
B-------3-----------3-----------3---------3-------3-------
G-----0---0-------0---0-------0---0---------0-------0-----
D---2-------2---2-------2---0-------0---0-------0---------
A---------------------------------------------------------
E-0-----------2------------3-----------3-------2----------



How long have I been in this storm?
So overwhelmed by the ocean’s shapeless form
Water's getting harder to tread
With these waves crashing over my head

If I could just see you
Everything would be all right
If I could see you
This darkness would turn to light

And I will walk on water
And you will catch me if I fall
And I will get lost into your eyes
And everything will be all right
And everything will be all right

I know you didn’t bring me out here to drown
So why am I ten feet under and upside down
Barely surviving has become my purpose
Because I’m so used to living underneath the surface

And I will walk on water
And you will catch me if I fall
And I will get lost into your eyes
And everything will be all right
And everything will be all right
            
Hard to play? Try these video lessons and learn fast. | Correct




comments powered by Disqus
↑ Back to top | Tablatures and chords are parodies/interpretations of the original songs. You may use it for private study, scholarship, research or language learning purposes only