» » »

Something In Between Bass tabs (ver.1)

Artists:  A B C D E F G H I J K L M N O P Q R S T U V W X Y Z # 

Something In Between Bass tabs (ver.1)

Lifehouse
Rating:
0/5 (0 votes)

Hard to play? Try these video lessons and learn fast.
                Track: Something In Betweem

This is like my first tab, i love this song, its really easy to play lol!
Intro/Verse
G-4--4-44------------------
D---------6--6-66--4--4-4-4
A--------------------------
E--------------------------

Chorus
G-4-4-4-------------
D-------4-4-4--2-2-2
A-------------------
E-------------------

Verse2
G-4------------------------
A--------6---------4-------
D--------------------------
E--------------------------

Intro
Verse1
Chorus
Verse1
Chorus
Verse1
Verse2
            
Hard to play? Try these video lessons and learn fast. | Correct




comments powered by Disqus
↑ Back to top | Tablatures and chords are parodies/interpretations of the original songs. You may use it for private study, scholarship, research or language learning purposes only