» » »

Sky Is Falling - Tabs (ver.2)

Artists:  A B C D E F G H I J K L M N O P Q R S T U V W X Y Z # 

Sky Is Falling - Tabs (ver.2)

Lifehouse
Rating:
0/5 (0 votes)

Hard to play? Try these video lessons and learn fast.
                Tuning: down 1/2 step (Eb Ab Db Gb Bb eb)
Capo:   none



Note : the guitar is tuned down a half-step
S = slide
H = hammer
X = muted or dead string


Intro: E-D-C#m-C
(guitar 1 plays power chords)


Guitar 2 plays riff 1(repeat as needed)
*some chorus or flanger effect
e|----7-------7-------7---------------------------
B|--9---9---9---9---9---9-------------------------
G|--------9-------9-------------------------------
D|------------------------------------------------
A|------------------------------------------------
E|------------------------------------------------

Stanza 1(guitar 1 plays power chords)
	  (guitar 2 still plays riff 1)
E               D   
I watch as the daylight crawls
 C#m                      C
past the shadows hanging on the walls
          E                    D            
it's been a long time since I felt the stain
    C#               C
of yesterday getting in my way


Chorus: (clean)
(Both guitars)power chords
	
A               E            Bm
 I'm alive but tell me am I free
                   F#m           D
I've got eyes but tell me can I see
            A          B        E
the sky is falling and no one knows
A            E            Bm
we shouldn't be hard to believe
                  F#m             D
shouldn't be this difficult to breathe
            A          B        E
the sky is falling and no one knows


(same as stanza 1)(guitar 2)
you leave me hanging on
only to catch my breath
I've got you and I've got nothing left
don't leave me all alone down here
with myself and all of my fear
Chorus: (clean)
(Both guitars)power chords
A               E            Bm
 I'm alive but tell me am I free
                   F#            D
I've got eyes but tell me can I see
            A          B        E
the sky is falling and no one knows
A            E            Bm
we shouldn't be hard to believe
                  F#             D
shouldn't be this difficult to breathe
            A          B        E
the sky is falling and no one knows


(riff 2)
B   D   C#m  F#
no one knows

B   D   C#m  F#
no one knows
This is riff 2(guitar 2)chorus or flanger effect(2x)
Im not sure with this but it sounds close..
e|------------------------------------------------------
B|------------------------------------------------------
G|----11--9--11-----11--9--11----11--9--11---11--9--11--
D|--9---------------------------------------------------
A|---------------12-----------11-----------9------------
E|------------------------------------------------------
ad lib Guitar 1 does power chords( Bm-F#m-D-A-B)2x
Guitar 2 does this solo(distortion with phaser and chorus effect)

e|-------------------------------------------------------------------------
B|--------------------------------------------------------------12-10-8-7--
G|-------------------------------11-11-11-11-9-7-6--8h9-8h9-8-11-----------
D|------12-12-12-12-11-9-7-------------------------7-----------------------
A|--7s9--------------------9-7h9-------------------------------------------
E|-------------------------------------------------------------------------

e|-------------------------------------------------------------------------7-9-
B|-------------------------------------------------------------------9-10------
G|-------------------------------11-11-11-11-9-7-6--8h9-8h9-8------------------
D|------12-12-12-12-11-9-7-------------------------7----------11-7-9-----------
A|--7s9--------------------9-7h9-----------------------------------------------
E|-----------------------------------------------------------------------------

Chorus: (clean)
(Both guitars)power chords

A               E            Bm
 I'm alive but tell me am I free
                   F#m           D
I've got eyes but tell me can I see
            A          B        E
the sky is falling and no one knows
A            E            Bm
we shouldn't be hard to believe
                  F#m           D
shouldn't be this difficult to breathe
            A          B        E
the sky is falling and no one knows

D             A          B        E
  the sky is falling and no one knows

D             A          B        E

  the sky is falling and no one knows
D             A          B        E

  the sky is falling and no one knows

I guess that's the whole song. Hope you enjoyed it guys! :>
If you have any comments, suggestions or violent reactions just text or call
            
Hard to play? Try these video lessons and learn fast. | Correct




comments powered by Disqus
↑ Back to top | Tablatures and chords are parodies/interpretations of the original songs. You may use it for private study, scholarship, research or language learning purposes only