» » »

Lifehouse, Sick Cycle Carousel Tabs (ver.3)

Artists:  A B C D E F G H I J K L M N O P Q R S T U V W X Y Z # 

Sick Cycle Carousel Tabs (ver.3)

Lifehouse Tabs
 Rating:
4/5 (4 votes)
Sick Cycle Carousel lessons Tabs too difficult? Try these video lessons and learn fast
                Lyrics: J. Wade
Music: Lifehouse
Label: Dreamworks
----------------------------------

This version is in the proper tuning and with the proper intro.

Tuning: Half Step Down

Play all open chords

Verse:
          F         G     Am              F         G     Am
     eb-|-----------------------0-------|-----------------------------------|
     Bb-|--------------------------1--0-|-----------------------------------|
     Gb-|---------------------2---------|---------------------4h5p4---------|
     Db-|-----3-2-2-0-0-----2-----------|-----3-2-2-0-0-----2-------3---3-2-|
     Ab-|---3-----------3-0-------------|---3-----------3-0-----------------|
     Eb-|-1-----------------------------|-1---------------------------------|
        |                                                                   |
         -------------------------------Intro-------------------------------

          F         G     Am              F               E
     eb-|-----------------------0-------|------------------------------|
     Bb-|--------------------------1--0-|------------------------------|
     Gb-|---------------------2---------|-----------------1-(let ring)-|
     Db-|-----3-2-2-0-0-----2-----------|-----3-2-2-0-0---2------------|
     Ab-|---3-----------3-0-------------|---3-----------3-2------------|
     Eb-|-1-----------------------------|-1---------------0------------|

Pre-Chorus/Bridge:     Am     G     F     G

Chorus/Outro:     C    G     Dm     Am

Solo:
     eb-|-------------------7---|-------------------|-------------------7---|-------------------|
     Bb-|---------------------8-|-------------------|---------------------8-|-------------------|
     Gb-|-10-10-9-9-7-7---9-----|-10-10-9-9-7-7---9-|-10-10-9-9-7-7---9-----|-10-------12--9----|
     Db-|---------------9-------|---------------9---|---------------9-------|-------------------|
     Ab-|-----------------------|-------------------|-----------------------|-------------------|
     Eb-|-----------------------|-------------------|-----------------------|-------------------|
        |                                           |
         ------------------Post-Chorus--------------

Verse (picked)
     If shame had a face I think it would kinda look like mine
     If it had a home would it be my eyes?
     Would you believe me if I said I'm tired of this?
     Well here we go now one more time

Pre-Chorus
     Cause I tried to climb your steps
     I tried to chase you down
     I tried to see how low I could get down to the ground
     And I tried to earn my way
     I tried to change this mind
     You better believe that I had tried to beat this

Chorus
     So where will this end
     It goes on and on
     Over and over and over again
     Keeps spinning around
     I know that it won't stop
     Till I step down from this for good

Post-Chorus

Verse (strummed)
     Well, I never thought I'd end up here
     Never thought I'd be standing where I am
     I guess I kinda thought that it would be easier than this
     I guess I was wrong now one more time

Pre-Chorus
     Cause I tried to climb your steps
     I tried to chase you down
     I tried to see how low I could get down to the ground
     And I tried to earn my way
     I tried to change this mind
     You better believe that I had tried to beat this

Chorus
     So where will this end
     It goes on and on
     Over and over and over again
     Keeps spinning around
     I know that it won't stop
     Till I step down from this

Bridge
     Sick cycle carousel
     This is a sick cycle, yeah
     Sick cycle carousel
     This is a sick cycle, yeah

Solo

Chorus
     So where will this end
     It goes on and on
     Over and over and over again
     Keeps spinning around
     I know that it won't stop
     Till I step down from this for good

Chorus
     Where will this end
     It goes on and on
     Over and over and over again
     Keeps spinning around
     I know that it won't stop
     Till I step down from this for good

Outro
     Sick cycle carousel
     Sick cycle carousel
     Sick cycle carousel
     Sick cycle carousel (start fade)
     Sick cycle carousel
     Sick cycle carousel
     Sick cycle carousel
            
Submit corrections

comments powered by Disqus
↑ Back to top | Lifehouse Tabs for Sick Cycle Carousel. Lyrics for acoustic guitar and electric guitar. Tablatures and chords are parodies/interpretations of the original songs. You may use it for private study, scholarship, research or language learning purposes only