» » »

Lifehouse, Sick Cycle Carousel Bass tabs (ver.1)

Artists:  A B C D E F G H I J K L M N O P Q R S T U V W X Y Z # 

Sick Cycle Carousel Bass tabs (ver.1)

Lifehouse Tabs
4/5 (4 votes)
Sick Cycle Carousel lessons Tabs too difficult? Try these video lessons and learn fast
                Note:  Tunned down half a step

No bass in the intro...leads into the pre-chorus


G |------------------4-0-------0--------7h9h7--|
D |--3-30-5-50-2-02-----03-30-5-50-07----------|
A |--------------------------------------------|
E |--------------------------------------------|
 |--3-30-5-50-2-02----03-33-333 322-----------|

 |------------------------------55--------|   X2

 Repeat twice (note: some variations)
 |-----------------------------------------|   X2
 |-3--33 5-------5-5578-7-5--0-2-3---------|


 |-----------------------------55---------|  x2   
There is a killer fill here.


Slowly tabbing my way through this entire album!!!!
Note:  There are a ton of fills that aren't include...here's a project for you.
Submit corrections

comments powered by Disqus
↑ Back to top | Lifehouse Bass for Sick Cycle Carousel. Lyrics for acoustic guitar and electric guitar. Tablatures and chords are parodies/interpretations of the original songs. You may use it for private study, scholarship, research or language learning purposes only