» » »

Lifehouse, Only One Tabs (ver.1)

Artists:  A B C D E F G H I J K L M N O P Q R S T U V W X Y Z # 

Only One Tabs (ver.1)

Lifehouse Tabs
 Rating:
4/5 (4 votes)
Only One lessons Tabs too difficult? Try these video lessons and learn fast
                Tuning: standard (EADGBE)
Capo:   none



/=Slide Down 
\= Slide Up 
p=pluck the note 
h=hammer note 
pm=palm mute(place picking lightly on strings before bridge.) 

Listen to the song for the correct timing. 
I tried my best to represent it well. 

Intro 
E--------------------------------------------------------------------- 
B--------------------------------------------------------------------- 
G-----3-5---1/0---Reapeat Throughout First Verse---------------------- 
D-5-5-----5-----3----------------------------------------------------- 
A--------------------------------------------------------------------- 
E--------------------------------------------------------------------- 

Verse 1- Lead 
E--------------------------------------------------------------------- 
B--------------------------------------------------------------------- 
G--------------------------------------------------------------------- 
D------3-5---1/0----repeat until CHorus------------------------------- 
A--5-5-----5-----3---------------------------------------------------- 
E--------------------------------------------------------------------- 

Verse 1- Lead at end of Verse- 
E-6------6-----6------------------------------------------------------ 
B---4/3----4/3---4/3---4-4/3------------------------------------------ 
G--------------------------------------------------------------------- 
D--------------------------------------------------------------------- 
A--------------------------------------------------------------------- 
E--------------------------------------------------------------------- 

Verse 1- Rythm- 
Starts on the Word "circles" "She walks around in cicles in my head" 
I only strum the E,B,G and D strings for the chords, but do whatever 
you want. 

  G  G  GGG  A#A#A#A#A#   C  C  CCC  G  G  GGG 
E-3--3--333--6--6--666----0--0--000--3--3--333------------------------ 
B-0--0--000--6--6--666----1--1--111--0--0--000------------------------ 
G-0--0--000--6--6--666----0--0--000--0--0--000------------------------ 
D-0--0--000--7--7--777----0--0--000--0--0--000------------------------ 
A-2--2--222--8--8--888----2--2--222--2--2--222------------------------ 
E-3--3--333--8--8--888----3--3--333--3--3--333------------------------ 

Chorus-Lead at begining without distortion 
      pm       pm       pm       pm   
E------|--------|--------|--------|----------------------------------- 
B------|--------|--------|--------|----------------------------------- 
G-3-3-353--5-5-575--7-7-797--9-9-9119 repeat until it changes--------- 
D--------------------------------------------------------------------- 
A--------------------------------------------------------------------- 
E--------------------------------------------------------------------- 

Chorus-Lead inbetween heavy part and after softer part 
E--6----6---6---6----------------------------------------------------- 
B----4----4---4---4--------------------------------------------------- 
G--------------------------------------------------------------------- 
D--------------------------------------------------------------------- 
A--------------------------------------------------------------------- 
E--------------------------------------------------------------------- 

Chorus- Lead at end(heavier part)with distortion 
      pm       pm       pm       pm   
E------|--------|--------|--------|----------------------------------- 
B------|--------|--------|--------|----------------------------------- 
G-3-3-353--5-5-575--7-7-797--9-9-9119 repeat until end of chorus------ 
D--------------------------------------------------------------------- 
A--------------------------------------------------------------------- 
E--------------------------------------------------------------------- 

Chorus-Rythm- 
There are 2 ways to play it,both are listed and both sound good. 
Choose one way. 

  G  G  GGG  A#A#A#A#A#   C  C  C C C   G  G  GGG 
E-3--3--333--6--6--666----8--8--8 8 8-3--3--333----------------------- 
B-3--3--333--6--6--666----8--8--8 8 8-3--3--333----------------------- 
G-4--4--444--6--6--666----9--9--9 9 9-4--4--444----------------------- 
D-5--5--555--7--7--777---10--10-1010105--5--555----------------------- 
A-5--5--555--8--8--888---10--10-1010105--5--555----------------------- 
E-3--3--333--8--8--888----8--8--8 8 8-3--3--333----------------------- 

OR: 

  G5G5G5G5G5  A#5------  C5 C5 C5 C5 C5 
E--------------------------------------------------------------------- 
B--------------------------------------------------------------------- 
G--------------------------------------------------------------------- 
D-5--5--555--8--8--888------------------------------------------------ 
A-5--5--555--8--8--888---10-10-101010--5--5--555---------------------- 
E-3--3--333--6--6--666---8--8--8 8 8---3--3--333---------------------- 




Verse 2-Lead 
E--------------------------------------------------------------------- 
B--------------------------------------------------------------------- 
G-----3-5-3-1/0-------3-5-3-1/0-----repeat throughout verse----------- 
D-5-5-----------3-5-5-----------3------------------------------------- 
A--------------------------------------------------------------------- 
E--------------------------------------------------------------------- 

Verse- Lead at end of Verse 2 
E-6-----6-----6------------------------------------------------------- 
B---4/3---4/3---4/3--4-4/3-------------------------------------------- 
G--------------------------------------------------------------------- 
D--------------------------------------------------------------------- 
A--------------------------------------------------------------------- 
E--------------------------------------------------------------------- 

Chorus-Lead at begining without distortion 
      pm       pm       pm       pm   
E------|--------|--------|--------|----------------------------------- 
B------|--------|--------|--------|----------------------------------- 
G-3-3-353--5-5-575--7-7-797--9-9-9119 repeat until it changes--------- 
D--------------------------------------------------------------------- 
A--------------------------------------------------------------------- 
E--------------------------------------------------------------------- 

Chorus-Lead inbetween heavy part and after softer part 
E--6----6---6---6----------------------------------------------------- 
B----4----4---4---4--------------------------------------------------- 
G--------------------------------------------------------------------- 
D--------------------------------------------------------------------- 
A--------------------------------------------------------------------- 
E--------------------------------------------------------------------- 

Chorus- Lead at end(heavier part)with distortion 
      pm       pm       pm       pm   
E------|--------|--------|--------|----------------------------------- 
B------|--------|--------|--------|----------------------------------- 
G-3-3-353--5-5-575--7-7-797--9-9-9119 repeat until end of chorus------ 
D--------------------------------------------------------------------- 
A--------------------------------------------------------------------- 
E--------------------------------------------------------------------- 

Chorus-Rythm- 
There are 2 ways to play it,both are listed and both sound good. 
Choose one way. 
 G  G  GGG  A#A#A#A#A#   C  C  C C C   G  G  GGG 
E-3--3--333--6--6--666----8--8--8 8 8-3--3--333----------------------- 
B-3--3--333--6--6--666----8--8--8 8 8-3--3--333----------------------- 
G-4--4--444--6--6--666----9--9--9 9 9-4--4--444----------------------- 
D-5--5--555--7--7--777---10--10-1010105--5--555----------------------- 
A-5--5--555--8--8--888---10--10-1010105--5--555----------------------- 
E-3--3--333--8--8--888----8--8--8 8 8-3--3--333----------------------- 

OR: 

  G5G5G5G5G5  A#5------  C5 C5 C5 C5C5 
E--------------------------------------------------------------------- 
B--------------------------------------------------------------------- 
G--------------------------------------------------------------------- 
D-5--5--555--8--8--888------------------------------------------------ 
A-5--5--555--8--8--888---10-10-101010--5--5--555---------------------- 
E-3--3--333--6--6--666---8--8--8 8 8---3--3--333---------------------- 



Interlude before solo-Rythm only(ALL POWER CHORDS[5th chords]) 
  G G GGG A# A# A#A#A#  C C CCC      G G GGG 
E--------------------------------------------------------------------- 
B--------------------------------------------------------------------- 
G--------------------------------------------------------------------- 
D--------------------------------------------------------------------- 
A--5-5-555-8 -8 -8 8 8--10-10-101010--5-5-555------------------------- 
E--3-3-333-6 -6 -6 6 6---8-8 - 8 8 8--3-3-333------------------------- 

Solo-Heavy Distortion 
      pm       pm      pm    pm          
E------|--------|-------|-----|--------------------------------------- 
B------|--------|-------|-----|--------------------------------------- 
G-3-3-353--5-5-575-7-7-797-9-9119--repeat--let last note die out------ 
D--------------------------------------------------------------------- 
A--------------------------------------------------------------------- 
E--------------------------------------------------------------------- 

Verse 3-Lead 
E--------------------------------------------------------------------- 
B--------------------------------------------------------------------- 
G-----3-5-3-1/0-------3-5-3-1/0-----repeat throughout verse----------- 
D-5-5-----------3-5-5-----------3------------------------------------- 
A--------------------------------------------------------------------- 
E--------------------------------------------------------------------- 

Verse 3- Rythm 
  G  G  GGG  A#A#A#A#A#   C  C  CCC  G  G  GGG 
E-3--3--333--6--6--666----0--0--000--3--3--333------------------------ 
B-0--0--000--6--6--666----1--1--111--0--0--000------------------------ 
G-0--0--000--6--6--666----0--0--000--0--0--000------------------------ 
D-0--0--000--7--7--777----0--0--000--0--0--000------------------------ 
A-2--2--222--8--8--888----2--2--222--2--2--222------------------------ 
E-3--3--333--8--8--888----3--3--333--3--3--333------------------------ 

Last CHorus-Lead 
E--------------------------------------------------------------------- 
B--------------------------------------------------------------------- 
G--------------------------------------------------------------------- 
D------3-5---1/0----repeat until end of song-------------------------- 
A--5-5-----5-----3---------------------------------------------------- 
E--------------------------------------------------------------------- 

Last CHorus-Rythm 
  G  G  GGG  A#A#A#A#A#   C  C  CCC  G  G  GGG 
E-3--3--333--6--6--666----0--0--000--3--3--333------------------------ 
B-0--0--000--6--6--666----1--1--111--0--0--000------------------------ 
G-0--0--000--6--6--666----0--0--000--0--0--000------------------------ 
D-0--0--000--7--7--777----0--0--000--0--0--000------------------------ 
A-2--2--222--8--8--888----2--2--222--2--2--222------------------------ 
E-3--3--333--8--8--888----3--3--333--3--3--333------------------------
            
Submit corrections

comments powered by Disqus
↑ Back to top | Lifehouse Tabs for Only One. Lyrics for acoustic guitar and electric guitar. Tablatures and chords are parodies/interpretations of the original songs. You may use it for private study, scholarship, research or language learning purposes only