» » »

Lifehouse, How Long Tabs (ver.1)

Artists:  A B C D E F G H I J K L M N O P Q R S T U V W X Y Z # 

How Long Tabs (ver.1)

Lifehouse Tabs
 Rating:
4/5 (4 votes)
How Long lessons Tabs too difficult? Try these video lessons and learn fast
                great bonus track off of there new cd
Beginning starts in “A”

Lead part over it
e|----4---5---5---7---7---5---5-------------------------------|
B|---5--5---5---5---5---5---5---5-----------------------------|
G|-6----------------------------------------------------------|
D|------------------------------------------------------------|
A|------------------------------------------------------------|
E|------------------------------------------------------------|

Then  the bridge before the chorus listen for the change in the A chord
e|-2---4---2--00--------------1-------------------------------|
B|-2---4---3--20--------------3-------------------------------|
G|-2---6---2--22--------------2-------------------------------|
D|-4---6---0--22----last time 0-------------------------------|
A|-4---4------00----------------------------------------------|
E|-2----------------------------------------------------------|

The lead over that 
e|------------------------------------------------------------|
B|-/7--7--7--/9--6--6--6--6--/7--7--7---/9--5--5--5--5---5----|
G|----6--6--6-----6--6--6--6----7--7--7------6--6---6--6--6---|
D|------------------------------------------------------------|
A|------------------------------------------------------------|
E|------------------------------------------------------------|

e|------------------------------------------------------------|
B|-/7--7--7--/9--6--6--6--6--/7--7---9--9--10--10--10--9------|
G|----6--6--6-----6--6--6--6----7--7--------------------------|
D|------------------------------------------------------------|
A|------------------------------------------------------------|
E|------------------------------------------------------------|

Solo is just octaves
            
Submit corrections

comments powered by Disqus
↑ Back to top | Lifehouse Tabs for How Long. Lyrics for acoustic guitar and electric guitar. Tablatures and chords are parodies/interpretations of the original songs. You may use it for private study, scholarship, research or language learning purposes only