» » »

Blind Tabs (ver.3)

Artists:  A B C D E F G H I J K L M N O P Q R S T U V W X Y Z # 

Blind Tabs (ver.3)

Lifehouse
Rating:
0/5 (0 votes)

Hard to play? Try these video lessons and learn fast.
                daet,cams.norte.phils.


this tab actually is my first SONG i figured out
and put it into tablature..
ive seen some tabs but it seems many part are missing,
so this is it...
i guess this is 99.98% correct.

sya nga pala salamat sa group mates ko na lagi kong ka jammin!
cna karlopot and jhonelpot!
which i didicate this to my pinsan mhy-mhy!
muah!(parang chicks!)


hell yeah!!! for THE USED...
 
-kua tantoy


BLIND
"LIFEHOUSE"


intro:

GUITAR 1(RHYTYM GUITAR)

e|--------------------------------------------|
B|--------------------------------------------|
G|----------------------11-9-11---1-2-1-2-----|
D|-9-7-9-11-9---6-4-6-7--x-x-x----2-2-2-2-----|
A|-7-x-7--5-7---4-x-4-4--9-7-9----2-2-2-2-----|
E|-0-5-0--0-0---0-2-0-0-----------0-0-0-0-----| x2

GUITAR 2(LEAD GUITAR)
Start after guitar1 strikes 1st time of its part.

e|-----------------------------------------------------------------------------------------|
B|-----------------------------------------------------------------------------------------|
G|-14-14-14-14-14-14-14--11-11-11-11-11-11-11/-19-19-19-19-19-19-19/-21-21-21-21-21-21-21--|
D|--x--x--x--x--x--x--x---x--x--x--x--x--x--x---x--x--x--x--x--x--x---x--x--x--x--x--x--x--|
A|-12-12-12-12-12-12-12---9--9--9--9--9--9--9/-17-17-17-17-17-17-17/-19-19-19-19-19-19-19--|
E|-----------------------------------------------------------------------------------------|

verse:
GUITAR 1(RHYTYM GUITAR)

e|--------------------------------------------|
B|--------------------------------------------|
G|----------------------11-9-11---1-2-1-2-----|
D|-9-7-9-11-9---6-4-6-7--x-x-x----2-2-2-2-----|
A|-7-x-7--5-7---4-x-4-4--9-7-9----2-2-2-2-----|
E|-0-5-0--0-0---0-2-0-0-----------0-0-0-0-----| x2

GUITAR 2(LEAD GUITAR)
-strum each chords

     A   F#m   D    E
e|---0---------2------------|
B|---2---------3----0-------|
G|---2----2----2----1-------|
D|---2----4----0----2-------|
A|---0----4---------2-------|
E|--------2---------0-------|

I was young but i wasn't naive
I watch helpless
As you turn around to leave
And still i have the pain i have to carry
A past so deep
That even you could not bury if you tried.

pre chorus:

GUITAR 2

e|-----------------------------------------------------------------------------------------------------|
B|-----------------------------------------------------------------------------------------------------|
G|-11-11-11-11-11-11-11/13---17-17-17-17-17-17-17/19---13-13-13-13-13-13-13/15---11-11-11-11-11-11/13--|
D|--x--x--x--x--x--x--x--x----x--x--x--x--x--x--x--x----x--x--x--x--x--x--x--x----x--x--x--x--x--x--x--|
A|--9--9--9--9--9--9--9/11---15-15-15-15-15-15-15/17---11-11-11-11-11-11-11/13--- 9--9--9--9--9--9/11--|
E|-----------------------------------------------------------------------------------------------------|


chorus:

first part
GUITAR 1
-strum each chords

     A    E    D    E
e|---0---------2------------|
B|---2----0----3----0-------|
G|---2----1----2----1-------|
D|---2----2----0----2-------|
A|---0----2---------2-------|
E|--------0---------0-------| x2

GUITAR 2
e|---------------------------------------------------------------|
B|---------------------------------------------------------------|
G|-----------------9-9-9-9-9-9-9--7-7-7-7-7-7-7--9-9-9-9-9-9-9---|
D|--7-7-7-7-7-7-7--9-9-9-9-9-9-9--7-7-7-7-7-7-7--9-9-9-9-9-9-9---|
A|--7-7-7-7-7-7-7--7-7-7-7-7-7-7--5-5-5-5-5-5-5--7-7-7-7-7-7-7---|
E|--5-5-5-5-5-5-5------------------------------------------------| x2

After all this time
I never thought we'd be here
Never thought wed be here
When my love for you was blind
But i couldn't make you see
Couldn't make you see it.

second part
GUITAR 1
-strum each chord

    F#m   D    A    E
e|--------2----0-------------|
B|--------3----2----0--------|
G|---2----2----2----1--------|
D|---4----0----2----2--------|
A|---4---------0----2--------|
E|---2--------------0--------| x2

GUITAR 2
     
e|----------------------------------------------------------------------------------------------|
B|----------------------------------------------------------------------------------------------|
G|-11-11-11-11-11-11-11-11/--19-19-19-19-19-19-19-19\--14-14-14-14-14-14-14--9-9-9/13-13\9-9----|
D|--x--x--x--x--x--x--x--x---x--x--x--x--x--x--x--x---x--x--x--x--x--x--x--x-x-x--x--x-x-x------|
A|--9--9--9--9--9--9--9--9/--17-17-17-17-17-17-17-17\--12-12-12-12-12-12-12--7-7-7/11-11\7-7----|
E|----------------------------------------------------------------------------------------------| x2

That i loved you more
Than you'll ever know
And part of me died
When i let you go...

pre verse:
GUITAR 2
e|------------------------------------------------------------------------------|
B|------------------------------------------------------------------------------|
G|-11-11-11-11-11-11-11/13---17-17-17-17-17-17-17/19---13-13-13-13-13-13-13/15--|
D|--x--x--x--x--x--x--x--x----x--x--x--x--x--x--x--x----x--x--x--x--x--x--x--x--|
A|--9--9--9--9--9--9--9/11---15-15-15-15-15-15-15/17---11-11-11-11-11-11-11/13--|
E|------------------------------------------------------------------------------|

repeat verse: (guitar1 and guitar2)

I would fall asleep 
Only in hopes of dreaming
That everything would be like it was before
But nights like this it seems are slowly fleeting
They disappear as reality is crashing to the floor..

pre chorus:
GUITAR 2
e|------------------------------------------------------------------------------|
B|------------------------------------------------------------------------------|
G|-11-11-11-11-11-11-11/13---17-17-17-17-17-17-17/19---13-13-13-13-13-13-13/15--|
D|--x--x--x--x--x--x--x--x----x--x--x--x--x--x--x--x----x--x--x--x--x--x--x--x--|
A|--9--9--9--9--9--9--9/11---15-15-15-15-15-15-15/17---11-11-11-11-11-11-11/13--|
E|------------------------------------------------------------------------------|
        
repeat chorus: guitar1 and guitar2

SOLO:

GUITAR 1
-strum each chords

    A   F#m   A    E
e|--0---------0---------|
B|--2---------2----0----|
G|--2----2----2----1----|
D|--2----4----2----2----|
A|--0----4----0----2----|
E|-------2---------0----| 

GUITAR 2
e|--------------------------------|
B|--------------------------------|
G|--9/11\6--6-6-6-6-6-/6-7-6------|
D|--x--x-x--x-x-x-x-x--------9-7--|
A|--7/-9\4--4-4-4-4-4-------------|
E|--------------------------------| x2

   na.na.na...........nanana.nana
                                                  [ FAST PART.....then  mute the last note by right hand]
e|-----------------------------------------------------------------------------|
B|-----------------------------------------------------------------------------|
G|--9/11\6--6-6-6-6-6-/6-7-6--------9-9-9-9-9-9-9/13-13-13-13-13-13-13-13-13---|
D|--x--x-x--x-x-x-x-x--------9-7-6--x-x-x-x-x-x-x--x--x--x--x--x--x--x--x--x---|
A|--7/-9\4--4-4-4-4-4---------------7-7-7-7-7-7-7/11-11-11-11-11-11-11-11-11---|
E|-----------------------------------------------------------------------------| 
    na.na.na...........nanana.na...........

chorus:

first part(no guitar2)
GUITAR 1
-figure out the strumming

     A    E    D    E
e|---0---------2------------|
B|---2----0----3----0-------|
G|---2----1----2----1-------|
D|---2----2----0----2-------|
A|---0----2---------2-------|
E|--------0---------0-------| x2

After all this time
I never thought we'd be here
Never thought wed be here
When my love for you was blind
But i couldn't make you see
Couldn't make you see it.

second part
GUITAR 1
-figure out the strumming

    F#m   D    A    E
e|--------2----0-------------|
B|--------3----2----0--------|
G|---2----2----2----1--------|
D|---4----0----2----2--------|
A|---4---------0----2--------|
E|---2--------------0--------| x2

scream the guitar2!!

GUITAR 2
e|----------------------------------------------------------------------------------------------|
B|----------------------------------------------------------------------------------------------|
G|-11-11-11-11-11-11-11-11/--19-19-19-19-19-19-19-19\--14-14-14-14-14-14-14--9-9-9/13-13\9-9----|
D|--x--x--x--x--x--x--x--x---x--x--x--x--x--x--x--x---x--x--x--x--x--x--x--x-x-x--x--x-x-x------|
A|--9--9--9--9--9--9--9--9/--17-17-17-17-17-17-17-17\--12-12-12-12-12-12-12--7-7-7/11-11\7-7----|
E|----------------------------------------------------------------------------------------------| x2

That i loved you more
Than you'll ever know
And part of me died
When i let you go...

outro:

GUITAR 2
e|------------------------------------------------------------------------------|
B|------------------------------------------------------------------------------|
G|-11-11-11-11-11-11-11/13---17-17-17-17-17-17-17/19---13-13-13-13-13-13-13/15--|
D|--x--x--x--x--x--x--x--x----x--x--x--x--x--x--x--x----x--x--x--x--x--x--x--x--|
A|--9--9--9--9--9--9--9/11---15-15-15-15-15-15-15/17---11-11-11-11-11-11-11/13--|
E|------------------------------------------------------------------------------|

e|------------------------------------------------------------------------------------|
B|------------------------------------------------------------------------------------|
G|-11-11-11-11-11-11-11/13---17-17-17-17-17-17-17/19---13-13-13-13-13-13-13/15--11~~--|
D|--x--x--x--x--x--x--x--x----x--x--x--x--x--x--x--x----x--x--x--x--x--x--x--x---x----|
A|--9--9--9--9--9--9--9/11---15-15-15-15-15-15-15/17---11-11-11-11-11-11-11/13---9~~--|
E|------------------------------------------------------------------------------------|

-end:

thats it!
            
Hard to play? Try these video lessons and learn fast. | Correct




comments powered by Disqus
↑ Back to top | Tablatures and chords are parodies/interpretations of the original songs. You may use it for private study, scholarship, research or language learning purposes only